Guitar Tabs, Chords and Lyrics
Login is temporarily disabled for some users. Do not panic. Will be back in an hour or two. DO NOT REREGISTER!!


Like a Sunshower  Journey

 
 -------------------------------------------------------------------------------
 -------------------------------------------------------------------------------

Tuning: Standard / No Capo
*Note: The timing in my tab is off, it would be best to listen to the song for the timing.
Intro/Verse:
[D] [/A] [/Bm] [/G]  
 
 e|--------2--2p0-----0----------------------------------------------3---------|
 B|------3--------3------2-3-5--3h5-3p2h3----------3--------------------0------|
 G|----2-----------------------------------------4---4------------0-------0----|
 D|--0-----------------------------------------4------4---------0--------------|
 A|-------------------0----------------------2---------------------------------|
 E|-----------------------------------------------------------3----------------|

Pre-Chorus
(Strum Chords Once)
[G] [D/F#] [A] [A] [Em] [Em] [C] [C] 
 
 e|-3-------------2----------0---------0-----------0----------0--------0------0---|
 B|-3-------------3----------2---------2-----------0----------0--------1------1---|
 G|-0-------------2----------2---------2-----------0----------0--------0------0---|
 D|-0-------------0----------2---------2-----------2----------2--------2------2---|
 A|-2------------------------0---------0-----------2----------2--------3------3---|
 E|-3-------------2--------------------------------0----------0-------------------|

[G] [G] [D/F#] [D/F#]  
 
 e|--3---------3----------2-----------2-----------------------------------------|
 B|--3---------3----------3-----------3-----------------------------------------|
 G|--0---------0----------2-----------2-----------------------------------------|
 D|--0---------0----------0-----------0-----------------------------------------|
 A|--2---------2----------------------------------------------------------------|
 E|--3---------3----------2-----------2-----------------------------------------|

"A" Part before Chorus (If you want you could just strum the A chord)
Note: Strum each of these once, but by the end of the "A" part it goes more into a strum
 
 e|--0---0---0---0---0---0---0---0--------------------------------------------|
 B|--2---3---5---7---8---10--12--14-------------------------------------------|
 G|--0---0---0---0---0---0---0---0--------------------------------------------|
 D|--2---4---5---7---9---11--12--14-------------------------------------------|
 A|--0---0---0---0---0---0---0---0--------------------------------------------|
 E|---------------------------------------------------------------------------|

Chorus:
D D C G Repeat 3 times
 
 e|---2---2----0---3-----------------------------------------------------------|
 B|---3---3----1---3-----------------------------------------------------------|
 G|---2---2----0---0-----------------------------------------------------------|
 D|---0---0----2---0-----------------------------------------------------------|
 A|------------3---2-----------------------------------------------------------|
 E|----------------3-----------------------------------------------------------|

Then...
[Bb] [C]  
 
 e|---1-----0-----------------------------------------------------------------|
 B|---3-----1-----------------------------------------------------------------|
 G|---3-----0-----------------------------------------------------------------|
 D|---3-----2-----------------------------------------------------------------|
 A|---1-----3-----------------------------------------------------------------|
 E|---------------------------------------------------------------------------|

D D C G Repeat 3 times
 
 e|---2---2----0---3-----------------------------------------------------------|
 B|---3---3----1---3-----------------------------------------------------------|
 G|---2---2----0---0-----------------------------------------------------------|
 D|---0---0----2---0-----------------------------------------------------------|
 A|------------3---2-----------------------------------------------------------|
 E|----------------3-----------------------------------------------------------|

Then...
[Bb] [Bb] [F] [F] [C] [C] [G] [G]  
 
 e|-----1-------1------1-----1-----0------0-------3------3------------------------|
 B|-----3-------3------1-----1-----1------1-------3------3------------------------|
 G|-----3-------3------2-----2-----0------0-------0------0------------------------|
 D|-----3-------3------3-----3-----2------2-------0------0------------------------|
 A|-----1-------1------3-----3-----3------3-------2------2------------------------|
 E|--------------------1-----1--------------------3------3------------------------|

End Chorus
a variation of the "A" part is then used at the end of the first chorus
The rest of the song is basically a repeat of this with a slight variation in the order
it, listen to the song to tell which part to play.
| / slide up
| \ slide down
| h hammer-on
| p pull-off
| ~ vibrato
| + harmonic
| x Mute note
===============================================================================

Important: The song above is NOT stored on the Chordie server. The original song is hosted at www.azchords.com. Chordie works as a search engine and provides on-the-fly formatting. Chordie does not index songs against artists'/composers' will. To remove this song please click here.

Text color:
Chord color:
Chord grids: 
Font size:    
Page size: 

A Bb C D D/F# Em F G
Rate #1 of 1 versions

Login - add to songbook

SHARE PAGE  



You need to log in to post comments