Guitar Tabs, Chords and Lyrics
Major upgrade!! After one year development the new version of Chordie is now online! Please give feedback.


Shadowplay   Joy Division

 
 |--8---------------------------|-----------------------------------|--0-----------------|
 |--8---------------------------|-----------------------------------|--0-----------------|
 |--9--------------------9------|--9---9---9---9---9-------------0--|--1-----------------|
 |--10---10--10--10--10--10--10-|--10--10--10--10--10--12---12---0--|--2-----------------|
 |--10---10--10--10--10--10--10-|--10--10--10--10--10--12---12---0--|--2-----------------|
 |--8----8---8---8---8---8---8--|--8---8---8---8---8---10---10---0--|--0--------------0--|
 |----------------------------------|---------------------------|
 |----------------------------------|---------------------------|
 |----------------------------------|---9------------------11---|
 |------------------2---2---2---10--|---10-----------------12---|
 |--2---2---2---2---2---2---2---10--|---10-----------------12---|
 |--0---0---0---0---0---0---0---8---|---8------------------10---|
 |---------------------------------|---0----------------|------------------|
 |----------------------------0----|---0----------------|------------------|
 |--11--------------11---11---0----|---1----------------|------------------|
 |--12--------------12---12---0----|---2----------------|------------------|
 |--12--------------12---12--------|---2----------------|------------------|
 |--10--------------10---10--------|---2------------0---|--0---------------|

 


 


 


 First Solo:


 

 
 |------------------------------|----------------------------|-------------------------|
 |------------------------------|----------------------------|-------------------------|
 |--------------------7---------|--7-----[7]-----------------|-------------------------|
 |----7/9----------------9------|--------------9--------7----|--9----------------------|
 |------------------------------|----------------------------|-------------------------|
 |------------------------------|----------------------------|-------------------------|
 |-------------------------------------|----------------------|------------------------|
 |-----7/10----7-----------------------|----------------------|------------------------|
 |--------------------9b(11)bd(9)---7--|---------------7------|--7-----[7]-------------|
 |-------------------------------------|--7/9--------------9--|--------------9------7--|
 |-------------------------------------|----------------------|------------------------|
 |-------------------------------------|----------------------|------------------------|
 |-----------------------|-----------------------------|-------------------------------|
 |-----------------------|-----------------------------|-------------------------------|
 |-----------------------|-----------------------------|-------------------------------|
 |---9----------(9)\7----|--9------9---9---9---9---9---|-9---8---7---9---8---7---9---8-|
 |-----------------------|-----------------------------|-------------------------------|
 |-----------------------|-----------------------------|-------------------------------|
 |----------------------------------|-----------------|--------------------------------|
 |----------------------------------|-----------------|--------------------------------|
 |----------------------------------|-----------------|--------------------------------|
 |---7---9---8---7---9---8---7---0--|-----------------|--------------------9---9---9---|
 |----------------------------------|--5/7------------|--7--------7--------------------|
 |----------------------------------|-----------------|--------------------------------|
 |----------------------------------|--------------------------------|-----------------|
 |----------------------------------|--------------------------------|-----------------|
 |----------------------------------|--------------------------------|-----------------|
 |--9---8---7---9---8---7---9---8---|-7---9---8---7---9---8---7---0--|-----------------|
 |----------------------------------|--------------------------------|-5/7-------------|
 |----------------------------------|--------------------------------|-----------------|
 |------------------------|
 |------------------------|
 |------------------------|
 |------------------------|
 |---7-----------\0-------|
 |------------------------|

 


 


 


 Interlude:


 

 
 |---8----------[8]---/10---|--10--------------------------0---|---------------------------|
 |---8----------[8]---/10---|--10--------------------------0---|---------------------------|
 |---9----------[9]---/11---|--11-------11-------11---11---0---|-12---12--12--12---12--12--|
 |---10---------[10]--/12---|--12-------12-------12---12---0---|-12---12--12--12---12--12--|
 |---10---------[10]--/12---|--12-------12-------12---12---0---|-14---14--14--14---14--14--|
 |---8----------[8]---/10---|--10-------10-------10---10---0---|-12---12--12--12---12--12--|
 |--------------------------------------------|--8--------8----8----8----------------------|
 |--------------------------------------------|--8--------8----8----8----------------------|
 |---12------12----12--------12---------------|--9--------9----9----9--------9-------/11---|
 |---12------12----12--------12---------------|--10-------10---10---10-------10------/12---|
 |---14------14----14--------14---------------|--10-------10---10---10-------10------/12---|
 |---12------12----12--------12----12---\0----|--8--------8----8----8--------8-------/10---|
 |---------------------------------------0----|---0----------------|~0---------------------|
 |---------------------------------------0----|---0----------------|~0---------------------|
 |---11------11----11--------11----11----0----|---13\--------------|~1---------------------|
 |---12------12----12--------12----12---------|---14\--------------|~2---------------------|
 |---12------12----12--------12----12---------|---14\--------------|~2---------------------|
 |---10------10----10--------10----10---------|---12\--------------|~0---------------------|

 


 


 


 Outro Solo:


 

 
 |------------------------------|----------------------------|---------------------------|
 |------------------------------|----------------------------|---------------------------|
 |--------------------7---------|--7-----[7]-----------------|---------------------------|
 |----7/9----------------9------|--------------9--------7----|--7/9----------------------|
 |------------------------------|----------------------------|---------------------------|
 |------------------------------|----------------------------|---------------------------|
 |------------------------------|---------------------------|----------------------------|
 |------------------------------|---------------------------|----------------------------|
 |------------------------------|-----------------7---------|--7-----[7]-----------------|
 |---9------9-------7---9---7---|--9-----------------9------|--------------9--------7----|
 |------------------------------|---------------------------|----------------------------|
 |------------------------------|---------------------------|----------------------------|
 |--------------------|-------------------------------|----------------------------------|
 |--------------------|-------------------------------|----------------------------------|
 |--------------------|-------------------------------|----------------------------------|
 |---9----------------|--9--------9---9---9---9---9---|--9---8---7---9---8---7---9---8---|
 |--------------------|-------------------------------|----------------------------------|
 |--------------------|-------------------------------|----------------------------------|
 |-----------------------------------|-----------------|---------------------------------|
 |-----------------------------------|-----------------|---------------------------------|
 |-----------------------------------|-----------------|---------------------------------|
 |---7---9---8---7---9---8---7---0---|-----------------|-----------------7/9----9----9---|
 |-----------------------------------|-5/7~------------|--7-------7----------------------|
 |-----------------------------------|-----------------|---------------------------------|
 |-----------------------------------|----------------------------------|----------------|
 |-----------------------------------|----------------------------------|----------------|
 |-----------------------------------|----------------------------------|----------------|
 |---9---8---7---9---8---7---9---8---|--7---9---8---7---9---8---7---0---|----------------|
 |-----------------------------------|----------------------------------|-5/7~-----------|
 |-----------------------------------|----------------------------------|----------------|
 |-------------------------------|------------------------------|------------------------|
 |-------------------------------|------------------------------|------------------------|
 |-------------------------------|------------------------------|---------------------7--|
 |---------------------------7---|/9------9---9---9------7---9--|---7---9------9---------|
 |---7------7------7---7---------|------------------------------|------------------------|
 |-------------------------------|------------------------------|------------------------|
 |-------------------------------|------------------------------------|------------------|
 |-------------------------------|-----7-------7-------7--------------|------------------|
 |---7---------7---------7---9---|--9b(11)--9b(11)--9b(11)bd(9)--7--7-|-----7--7----7--7-|
 |---------9----------9----------|------------------------------------|---9-------9------|
 |-------------------------------|------------------------------------|------------------|
 |-------------------------------|------------------------------------|------------------|
 |-------------------------------|---------------------------|---------------------------|
 |-------7---7----------9---9----|---------------------------|---------------------------|
 |---9--------------9------------|-9----9---9---9----9---9---|-9----9---9---9----9---9---|
 |-------------------------------|---------------------------|---------------------------|
 |-------------------------------|---------------------------|---------------------------|
 |-------------------------------|---------------------------|---------------------------|
 |-----------------------------|------------------------|--------------------------------|
 |-----------------------------|------------------------|--------------------------------|
 |---9----9---9---9----9---9---|-9----9---9---------9---|-9---9-9---------9---9-9--------|
 |-----------------------------|--------------------9---|---------9---9-----------9---9--|
 |-----------------------------|------------------------|--------------------------------|
 |-----------------------------|------------------------|--------------------------------|
 |--------------------------------|---------------------|---------------------|-0--------|
 |--------------------------------|---------------------|---------------------|-0--------|
 |-9---9-9---------9---9-9--------|-9---------9---------|-9---------9---------|-9--------|
 |---------9---9-----------9---9--|-----9--9-------9--9-|------9---------9----|-9--------|
 |--------------------------------|---------------------|---------------------|-7--------|
 |--------------------------------|---------------------|---------------------|----------|
 |---0-----0-----0---0---------|-8----------------------|----------------------0--|-0----|
 |---0-----0-----0---0---------|-8----------------------|----------------------0--|-0----|
 |---9-----9-----9---9---------|-9----------------------|----------------------0--|-0----|
 |---9-----9-----9---9---8--8--|-10---10-10-10-10-10-10-|-10-10-10/12-12-12-12-0--|-2----|
 |---7-----7-----7---7---8--8--|-10---10-10-10-10-10-10-|-10-10-10/12-12-12-12----|-2----|
 |-----------------------8--8--|-8----8--8--8--8--8--8--|-8--8--8-/10-10-10-10----|-0----|


Important: The song above is NOT stored on the Chordie server. The original song is hosted at www.azchords.com. Chordie works as a search engine and provides on-the-fly formatting. Chordie does not index songs against artists'/composers' will. To remove this song please click here.

This song is displayed as text-only. Transposing and tuning is only available for chordpro-songs.
Rate #1 of 4 versions

Jango Player

Login - add to songbook

SHARE PAGE  




You need to log in to post comments