Guitar Tabs, Chords and Lyrics
Major upgrade!! After one year development the new version of Chordie is now online! Please give feedback.


Luna  Juanes

 
 e|--8h10-10-7---------------8h10-10-7---------------|
 b|------------10--10-10-10------------10--10-10-10--|
 g|--------------------------------------------------|
 D|--------------------------------------------------|
 A|--------------------------------------------------|
 E|--------------------------------------------------|
 e|--8h10-10-7---------------------10----------------|
 b|------------10--10-10-10-9-8--8----10-------------|
 g|--------------------------------------------------|
 D|--------------------------------------------------|
 A|--------------------------------------------------|
 E|--------------------------------------------------|

[D]Luna de todas [A]las noches
Il[D]umíname esta[A] noche
[D]Dime si ella es [A]la reina Y la [G]dueña de todo mi[A] amor
[D]Luna lunita lu[A]nera Luna [D]llena luna [A]perla
[D]Dime si ella es [A]la reina Y la [G]dueña de todo mi[A] amor
Y [D]dime [A]si ella es [G]de mi [A]voz la piel
Y [D]dime [A]si ella es [G]mi raz[A]ón de ser
[D]Luna de tantos amo[A]res
[D]Luna viva luna her[A]mosa
[D]Dime si ella es la[A] reina Y la d[G]ueña de todo[A] mi amor
[D]Luna de noches en [A]grima
[D]Luna de la nocheci[A]ta
[D]Dime si ella es [A]la reina Y la [G]dueña de todo mi[A] amor
Y [D]dime [A]si ella es [G]de mi [A]voz la piel
Y [D]dime [A]si ella es [G]mi raz[A]ón de ser
[A]ahhhhhhhhhhh
[D]Yo te doy [A]todo mi amor [D]Luna de mi [A]corazón
[D]Yo te doy [A]todo mi amor [G]Si tú me lo[A] cuentas todo
[D]Luna yo [A]todo te doy [D]Luna de mi [A]corazón
[D]Yo te doy [A]todo mi amor [G]Si tú me lo[A] cuentas todo
[D] [A]Luna luna lunita [G]lunera Cas[A]cabelera ben[D]dita seas
[A]Vení alumbra este[G] andaluz Que[A] viene cargando esta[D] cruz
[A]Y dime de una [G]vez si es ella la [A]que yo quiero[D]
[A]Luna luna lunita lu[G]nera Dime [A]todos tus sec[D]re[A]tos
Intro: D-A
Y [D]dime [A]si ella es [G]de mi [A]voz la piel
Y [D]dime [A]si ella es [G]mi raz[A]ón de ser
[D]Yo te doy [A]todo mi amor [D]Luna de mi [A]corazón
[D]Yo te doy [A]todo mi amor [G]Si tú me lo[A] cuentas todo
[D]Luna yo [A]todo te doy [D]Luna de mi [A]corazón
[D]Yo te doy [A]todo mi amor [G]Si tú me lo[A] cuentas todo

Important: The song above is NOT stored on the Chordie server. The original song is hosted at www.azchords.com. Chordie works as a search engine and provides on-the-fly formatting. Chordie does not index songs against artists'/composers' will. To remove this song please click here.

Text color:
Chord color:
Chord grids: 
Font size:    
Page size: 

A D G
Rate #1 of 1 versions

Jango Player

Login - add to songbook

SHARE PAGE  




You need to log in to post comments