Guitar Tabs, Chords and Lyrics
Update 25:10. 13:00. Site is back up running again. Songbooks are recovered. Woring on getting search back up..


Nada valgo sin tu amor  Juanes

Bueno, esta es mi primera transcripciòn en esta p gina, perdon si esque hay errores, no
la cosa es que se escuche bien.
Esta canción te la dedico a tì la Mujer m s linda de todo Puebla, para tì JANNET, TE
MUCHO NENA, TE AMO
Acordes:
[C] [G] [Am] [F] [Dm] [Em] [Am-1] [Am-2] [Am-3] [Am-4] 
 
 e|--0--|--3--|--0---|--1--|--1---|--0---|--5--|--5--|--5--|--5--|
 b|--1--|--3--|--1---|--1--|--3---|--0---|--5--|--5--|--5--|--5--|
 g|--0--|--0--|--2---|--2--|--2---|--0---|--5--|--5--|--5--|--5--|
 d|--2--|--0--|--2---|--3--|--0---|--2---|--7--|--6--|--5--|--4--|
 a|--3--|--2--|--0---|--3--|------|--2---|-----|-----|-----|-----|
 e|--0--|--3--|--0---|--1--|------|--0---|-----|-----|-----|-----|

Arpegios: Esto va en el intro de la rola, escuchenla
[C] [G] [Am] [Am] [F] [Dm] 
 
 e|---------|---------|------------------|---------|----1----|
 b|----1----|----3----|----1--------1----|-----1---|---3-3---|
 g|---0-0---|---0-0---|---2-2-2----2-2-2-|----2-2-2|--2---2--|
 d|--2---2--|--0---0--|--2---2----2---2--|---3---3-|-0-------|
 a|-3-----3-|---------|-0--------0-------|---------|---------|
 e|---------|-3-------|------------------|-1-------|---------|

*G*
 
 e|-----------------|
 b|---3---3---3-----|
 g|--0---0---0---0--|
 d|-------------0---|
 a|-----------------|
 e|-3---1---0-------|

VERSO:
Cuando el tiempo p[C]asa y nos hacemos vi[G]ejos nos empie[Am]za a parecer
F Dm G F,Em
que pesan más lo daños que los mismos años, al final
[Dm]por eso yo qui[C]ero que mis años [G]pasen [Am]junto a tí, mi amor eterno
F Dm G F, Em
junto a mi familia, junto a mis amigos y mi voz
[Dm]porque nada v[Am-1]algo, porque nada t[Am-2]engo
[Am-3]si no tengo lo [Am-4]mejor: tu am[F]or y compañ[C]a en mi cor[G]azón.
Y es que vale m[C]s un año ta[G]rdío que un siglo va[Am]cío, amor
F Dm G,F,Em
y es que vale más tener bien llenito el corazóóón
[Dm]por eso yo quier[C]o que en mi mente sie[G]mpre tu[Am] cariño esté bien fuerte
F Dm G F,Em
aunque estemos lejos, aunque estemos cerca del final.
[Dm]porque nada [Am-1]valgo, porque nada t[Am-2]engo
[Am-3]si no tengo lo [Am-4]mejor: tu am[F]or y compañ[C]ía en mi cor[G]azón, ven amor.
*CORO*
[C] Me siento débil cuando estoy sin tí
[Am] y me hago fuerte cuando estás aquí
[F] sin tí yo ya no sé qué es vivir,
[G] mi vida es un túnel sin tu luz
[C] quiero pasar más tiempo junto a ti
[Am] recuperar las noches que perdí
[F] vencer el miedo inmenso de morir
[G] y ser eterno junto a tí,
porque nada v[Am-1]algo, porque nada t[Am-2]engo
s[Am-3]i no tengo lo [Am-4]mejor: tu am[F]or y compañ[C]a en mi cor[G]azón.
Solo:
 
 e|----------------------------------------------------------|
 b|-5---------------------??------5---------------------------|
 g----7/9-9-9-7------9---------5.-------------4-5-4/5/4------|
 d|--------------10-9---9-7-5--5.------3-2-5-7-----------7.--|
 a|----------------------------------------------------------|
 e|----------------------------------------------------------|
 e|----------------------|
 b|--------5-6-5/6/5-----|
 g|-4-5.-7-----------7.--|
 d|----------------------|
 a|----------------------|
 e|----------------------|

por eso yo quier[C]o que en mi mente sie[G]mpre tu[Am] cariño esté bien fuerte
F Dm G F,Em
aunque estemos lejos, aunque estemos cerca del final.
[Dm]porque nada [Am-1]valgo, porque nada t[Am-2]engo
[Am-3]si no tengo lo [Am-4]mejor: tu am[F]or y compañ[C]ía en mi cor[G]azón, ven amor.
*CORO*
[C] Me siento débil cuando estoy sin tí
[Am] y me hago fuerte cuando estás aquí
[F] sin tí yo ya no sé qué es vivir,
[G] mi vida es un túnel sin tu luz
[C] quiero pasar más tiempo junto a ti
[Am] recuperar las noches que perdí
[F] vencer el miedo inmenso de morir
[G] y ser eterno junto a tí,
porque nada v[Am-1]algo, porque nada t[Am-2]engo
s[Am-3]i no tengo lo [Am-4]mejor: tu am[F]or y compañ[C]a en mi cor[G]azón.
Termina en C
Suerte...

Important: The song above is NOT stored on the Chordie server. The original song is hosted at www.azchords.com. Chordie works as a search engine and provides on-the-fly formatting. Chordie does not index songs against artists'/composers' will. To remove this song please click here.

Text color:
Chord color:
Chord grids: 
Font size:    
Page size: 

Am C Dm Em F G
Rate #1 of 2 versions

Login - add to songbook

SHARE PAGE  



You need to log in to post comments