Guitar Tabs, Chords and Lyrics
Login is temporarily disabled for some users. Do not panic. Will be back in an hour or two. DO NOT REREGISTER!!


Broken Bones  Kaleo

[Intro] 
N.C.
The Devil's gonna make me a free man
N.C.
The Devil's gonna set me free
N.C.
The Devil's gonna make me a free man
N.C.
The Devil's gonna set me free
[Solo] 
[Gm]  
 
 e|------3--------------------------------------------------------------------|
 B|------3--------------------------------------------------------------------|
 G|------3----------------0----3--0-0---3/5---3--5--7--5--3-----5--3--5--7------|
 D|------5----------o--3------------------------------------------------------|
 A|------5--------------------------------------------------------------------|
 E|------3--------------------------------------------------------------------|
 e|------------------------------|
 B|------------------------------|
 G|----------------0----0--------|
 D|----0--3---0----0----0--------|
 A|------------------------------|
 E|------------------------------| x2

[Verse] 
I've been down[Gm], deep Texas. M[Cm]ississippi state.
Ho[D]ping things might go my w[Gm]ay.
For every [Gm]hard earned do[Cm]llar I make
th[D]ere stands a white man just to ta[Gm]ke it away.
Some might say I[Gm] talk loud, se[Cm]e if I care.
Unl[D]ike them, don't walk aw[Gm]ay from my fear
I've busted bones, b[Gm]roken stones, lo[Cm]oked the devil in the eye
I h[D]ope he's going to brake these chai[Gm]ns.
[Cborus] 
The Dev[Eb]il's going to mak[D]e me a free [Gm]man
the Devi[Eb]l's going to s[D]et me fr[Gm]ee
The Devi[Eb]l's going to mak[D]e me a free[Gm] man
the Devi[Eb]l's going to s[D]et me fre[Gm]e
[Solo] 
 
 e|---------------------------------------------------------------------------|
 B|---------------------------------------------------------------------------|
 G|------------------------0---3--0-0---3/5---3--5--7--5--3-----5--3--5--7----|
 D|-----------------o--3------------------------------------------------------|
 A|---------------------------------------------------------------------------|
 E|---------------------------------------------------------------------------|
 e|--------------------------------|
 B|--------------------------------|
 G|----------------0----0----------|
 D|----0--3---0----0----0----------|
 A|--------------------------------|
 E|--------------------------------| x2

Another h[Gm]ard day, no wat[Cm]er no rest.
I sa[D]w my chance so I got [Gm]him at last.
I took his s[Gm]ix shooter, put [Cm]two in his chest
He'll [D]never say a word n[Gm]o more, he'[Eb]ll never say[D] a word no[Gm] more.
 
 e|------6--3-3----1--3--1---------------------|
 B|--------------------------1-----------------|
 G|-----------------------------3--------------|
 D|--------------------------------------------|
 A|--------------------------------------------|
 E|--------------------------------------------|

Th[Eb]e devil got [D]him good fo[Gm]r sure.
Ain't got no p[Gm]lace to call a [Cm]home,
only ch[D7]ains and broken [Gm]bones.
Ain't got no p[Gm]lace to call a [Cm]home
so come[D7] on lord won't you take [Gm]me now
Ain't got no p[Gm]lace to call a h[Cm]ome,
only ch[D7]ains and broken b[Gm]ones.
Ain't got no p[Gm]lace to call a [Cm]home
so come [D7]on lord what you waitin[Gm]g for.
[Solo] 
 
 e|---------------------------------------------------------3-6/3-3---3/10----|
 B|-----2b3-3-3-3-3-3-2---1-------------1--1/3\1----3/6--3-6------------------|
 G|-------------------------3--0-----3----------------------------------------|
 D|---------------------------------------------------------------------------|
 A|---------------------------------------------------------------------------|
 E|---------------------------------------------------------------------------|
 e|---10--10-8-6-8---6-3-6-6-3--3-1-------------------------------------------|
 B|---------------------------------3---0h1-------2-1---1---------------------|
 G|-----------------------------------3-----3--0------3---3-0---0-0-3/12------|
 D|-----------------------------------------------------------3---------------|
 A|---------------------------------------------------------------------------|
 E|---------------------------------------------------------------------------|
 e|-----------9-6-8-6---8/9/3-3--6---9-8-6-8-6-3-1-3-3-6---9-6-8-6---8/9/3----|
 B|---3/6-8-------------------------------------------------------------------|
 G|---------------------------------------------------------------------------|
 D|---------------------------------------------------------------------------|
 A|---------------------------------------------------------------------------|
 E|---------------------------------------------------------------------------|
 e|---3--6---------------------------------|
 B|----------6h8p6--3-6-3-1---1------------|
 G|-------------------------3---3-0-0------|
 D|----------------------------------------|
 A|----------------------------------------|
 E|----------------------------------------|

The Dev[Eb]il's going t[D]o make me a [Gm]free man
the Devi[Eb]l's going to[D] set me fr[Gm]ee
The Devi[Eb]ls going to [D]make me a f[Gm]ree man
the Devil[Eb]'s going to[D] set me fr[Gm]ee

Important: The song above is NOT stored on the Chordie server. The original song is hosted at www.azchords.com. Chordie works as a search engine and provides on-the-fly formatting. Chordie does not index songs against artists'/composers' will. To remove this song please click here.

Text color:
Chord color:
Chord grids: 
Font size:    
Page size: 

Cm D D7 Eb Gm
Rate #1 of 4 versions

Jango Player

Login - add to songbook

SHARE PAGE  



You need to log in to post comments