Guitar Tabs, Chords and Lyrics
Server problems seems to be fixed. Chordie has been experiencing problems with songs disappearing. These issues now seems to be fixed, but still verifying the fix. If you find anything strange, please email admin@chordie.com.


No Good   Kaleo

 
 e|-----------------------0-0-0-------0-0-0--------|
 B|-----------------------0-0-0-------0-0-0--------|
 G|-----------------------x-x-x-------x-x-x--------|
 D| 2---2----2---2----2---2-2-2---2---2-2-2--2-----|
 A| 2---2----2---2----2---2-2-2---2---2-2-2--2-----|
 E| 0-3-0----0-3-0----0-3-0-0-0---0-3-0-0-0--0-3-0-|

 


 


 [Main Riff] 


 


 (0:16-0:34)You play it twice:


 

 
 e|-3b-0--------------------------3b-0-5b-3--------------3b-0------------------------------------------|
 B|-------2-2h4p2p0-2p0---------------------5-3-5-------------2-2h4p2p0-2p0-----0h2-2-0----------------|
 G|---------------------2p0-------------------------------------------------2p0---------2-0h2-0h2-0----|
 D|----------------------------------------------------------------------------------------------------|
 A|----------------------------------------------------------------------------------------------------|
 E|-------------------------0----------------------0------------------------------------------------0--|

 


 


 [Verse] 


 


 (0:34-0:56)


 

 
 e|------------0-------0-----------------0-------0------------------------|
 B|------------0-------0-----------------0-------0-----------7----------5-|
 G|--------------------------------------------------------8----------6---|
 D|-2----9-7-2---9-7-2---------2----9-7-2---9-7-2--------9----------7-----|
 A|-2----9-7-2---9-7-2---------2----9-7-2---9-7-2-------------------------|
 E|-0----7-5-0---7-5-0---------0----7-5-0---7-5-0------7---------5--------|

 


 


 Then you play again the Main Riff (once) and then the Verse again (0:56-1:23), Also on


 minute 1:17 you can


 bend the G string on the 2nd fret to get a cool sound ;)


 


 [Bridge] 


 


 (1:23-1:41)


 

 
 e|-----------------------------------------------------------------------------------------------------------|
 B|-----------------------------------------------------------------------------------------------------------|
 G|-----------------------------------5---------5----------5---------5--7-7p5--7-5-7p5-7p5---7/9-9-7-5--------|
 D|-2---5---7---10-10-10-9-----7-7p5h7---5p7p5h7----7-7p5h7---5p7p5h7--------7------------7------------7-7-5--|
 A|-2---5---7---10-10-10-9------------------------------------------------------------------------------------|
 E|-0---3---5---8--8--8--7------------------------------------------------------------------------------------|

 


 


 [Solo] 


 


 (1:41-1:59)


 

 
 e|15b-12----------------------15b-12--17b-15-----------15b-12------------------------------------------------
 B|-------14-16p14p12-14p12------------------17-15-17---------14-16p14p12-14p12---12h14-14-12-----------------
 G|------------------------14--------------------------------------------------14------------14-12h14p12h14-12
 D|-----------------------------------------------------------------------------------------------------------
 A|-----------------------------------------------------------------------------------------------------------
 E|-----------------------------------------------------------------------------------------------------------
 e|15b-12----------------------15b-12---5b-5b-5b-5b-5b-|
 B|------14-16p14p12-14p12-----------------------------|
 G|-----------------------14---------------------------|
 D|----------------------------------------------------|
 A|----------------------------------------------------|
 E|----------------------------------------------------|
 e|15b-12--------------------------------------------------|
 B|------14-16p14p12-14p12---12h14-14-12-------------------|
 G|-----------------------14------------14-12h14p12h14-12--|
 D|--------------------------------------------------------|
 A|--------------------------------------------------------|
 E|--------------------------------------------------------|

 


 


 [Rest] 


 (1:59-2:17)


 


 [Bridge] 


 (same as the first one) (2:17-2:35)


 


 [Interlude] 


 


 (2:35-2:48)


 

 
 e|-3-0-0-0--3-0-0-0--3-0-0-0--3-0-0-0---------------------|
 B|-2-0-0-0--2-0-0-0--2-0-0-0--2-0-0-0----------7--------7-|
 G|-2-x-x-x--2-x-x-x--2-x-x-x--2-x-x-x--------8--------6---|
 D|-2-2-2-2--2-2-2-2--2-2-2-2--2-2-2-2------9--------7-----|
 A|-0-2-2-2--0-2-2-2--0-2-2-2--0-2-2-2---------------------|
 E|---0-0-0----0-0-0----0-0-0----0-0-0----7-------5--------|

 


 


 [Solo] 


 


 (2:48-3:23)


 

 
 e|-------------------------------------------------------------------|
 B|--------------(12)-----------(12)-------------(12)-----------(12)--|
 G|---------------12-------------12---------------12-------------12---|
 D|--/14-14p12h14----12h14p12h14-----/14-14p12h14----12h14p12h14------|
 A|-------------------------------------------------------------------|
 E|-------------------------------------------------------------------|
 e|----------------------------------------12----------12----------------|
 B|-------------------------------------------15p12---------12-12--------|
 G|/14-14p12--14-12-14p12-14p12-14p12--14b---------14----14b-----14p12---|
 D|---------14--------------------------------------------------------14-|
 A|----------------------------------------------------------------------|
 E|----------------------------------------------------------------------|
 e|-------------------------------------------------------------------|
 B|--------------(12)-----------(12)-------------(12)-----------(12)--|
 G|---------------12-------------12---------------12-------------12---|
 D|--/14-14p12h14----12h14p12h14-----/14-14p12h14----12h14p12h14------|
 A|-------------------------------------------------------------------|
 E|-------------------------------------------------------------------|
 e|---------------------------------------12----------12--12-12-12-12--12--12--|
 B|------------------------------------------15p12--------15b------15b-----15b-|
 G|/14-14p12--14-12-14p12-14p12-14p12--14b---------14--------------------------|
 D|---------14-----------------------------------------------------------------|
 A|----------------------------------------------------------------------------|
 E|----------------------------------------------------------------------------|
 e|-----------15b---------15b--------------15b---------15b--/17-17p15---17-15-17p15-17p15---17b-15-12---------|
 B|---17p15h17----17p15h17-----/17-17p15h17----17p15h17--------------17------------------17----------15-------|
 G|-----------------------------------------------------------------------------------------------------12--12|
 D|-------------------------------------------------------------------------------------------------------14--|
 A|-----------------------------------------------------------------------------------------------------------|
 E|-----------------------------------------------------------------------------------------------------------|
 e|-------------15b---------15b--------------15b---------15b--------------15b---------15b---|
 B|-/17-17p15h17----17p15h17-----/17-17p15h17----17p15h17-----/17-17p15h17----17p15h17------|
 G|-----------------------------------------------------------------------------------------|
 D|-----------------------------------------------------------------------------------------|
 A|-----------------------------------------------------------------------------------------|
 E|-----------------------------------------------------------------------------------------|
 e|--------------------------------------------------|
 B|---12---------------------------------------------|
 G|14b---14p12-14p12--12-----------------------------|
 D|-----------------14----14p12-14p12--12------------|
 A|----------------------------------14--14p12-14p12-|
 E|--------------------------------------------------| 


Important: The song above is NOT stored on the Chordie server. The original song is hosted at www.azchords.com. Chordie works as a search engine and provides on-the-fly formatting. Chordie does not index songs against artists'/composers' will. To remove this song please click here.

This song is displayed as text-only. Transposing and tuning is only available for chordpro-songs.
Rate #1 of 3 versions

Jango Player

Login - add to songbook

SHARE PAGE  



You need to log in to post comments