Guitar Tabs, Chords and Lyrics
Server problems seems to be fixed. Chordie has been experiencing problems with songs disappearing. These issues now seems to be fixed, but still verifying the fix. If you find anything strange, please email admin@chordie.com.


Seksi! Seksi!   Kamikazee

 
 e----------- -------------|
 B----------- Timingan -------------|
 G----------- nyo na -------------|
 D----------- lang!! --5555-6666--|
 A-5-5--6-7-- --3333-4444--|
 E-3-3--4-5-- -------------|

 


 


 Intro prt 2:


 

 
 e--------------------------- -------------------|
 B--------------------------- -------------------|
 G--------------------------- 3x -------------------|
 D-------------7-5-7-6--4---- Then -55-66--5555-5555--|
 A--5-5-6-7-8--5-3-5-4--2-5~- -55-66--3333-5555--|
 E--3-3-4-5-6-------------3~- -33-44-------3333--|

 


 .. ..


 Verse 1:


 

 
 e------------------------|
 B------------------------|
 G------------------------|
 D-----------7-6----------|
 A--5-5-6-7--5-4--7-6-----|
 E--3-3-4-5-------5-4-----|

 


 . . . . Repeat


 

 
 e------------------------| This
 B------------------------| 2x
 G-----------9-9-9-9------|
 D------------------------|
 A-5-5-6-7----------------|
 E-3-3-4-5----------------|

 


 [b] [b] [b] [b]  


 

 
 e---------------------------------|
 B---------------------------------|
 G---------------------------------|
 D---------------------5555-6666---|
 A-5-5-6-7---5-5-6-7---3333-4444---|
 E-3-3-4-5---3-3-4-5---------------|

 


 


 Chorus:Play the Intro prt 2


 Verse 2:Play the verse 1


 Repeat Chorus:


 


 Bridge prt 1:


 

 
 e-------------------| Notes:Pkinggan nyo ng maige
 B-------------------| d2 s part n i2!!hehe..
 G-------------------| 3x
 D-------------------|
 A--8-6-5-6-6-5-6-8--|
 E--6-4-3-4-4-3-4-6--|
 e---------------------------------|
 B---------------------------------|
 G---------------------------------|
 D---------------------------------|
 A--8888-6666-5555-6666--7777--8~--|
 E--6666-4444-3333-4444--5555--6~--|

 


 


 Bridge prt 2:


 Gtr 1:Play this also during adlib Gtr.2 Enters:


 

 
 e------------------------------------ --------------|
 B------------------------------------ --------------|
 G------------------------------------ --------------|
 D------------------------------------ --------------|
 A-2/7-0-7b-0-7b-0-7b-0-7b-7b-7b-7b--- --2~--22-0-22-|
 E------------------------------------ --0~--00-0-00-|

 


 .. ..


 


 Bridge prt 3(Adlib):


 Gtr.2


 Notes:Kas-kasin nyo na lng dito sa parteng ito!!Hindi exacto ung no.ng lead...


 

 
 e------------------14-15-14-15-14-15-17---16-16-16-17--16-16-16-17-16-16-17-17--19--|
 B-17b-17b-17b-17b-------------------------------------------------------------------|
 G-----------------------------------------------------------------------------------|
 D-----------------------------------------------------------------------------------|
 A-----------------------------------------------------------------------------------|
 E-----------------------------------------------------------------------------------|
 e-------------------------------------- -16-16-17-16-17-16-17-16-17-18-------|
 B-17-17-16-16-15-15-14-14-13-13-12-12-- -------------------------------17b~--|
 G-------------------------------------- 2x -------------------------------------|
 D-------------------------------------- -------------------------------------|
 A-------------------------------------- -------------------------------------|
 E-------------------------------------- -------------------------------------|

 


 


 Gtr 1.Last prt na ng adlib


 

 
 e------------------------- -------|
 B------------------------- 3x -------|
 G------------------------- Then -------|
 D------------------------- ----8~-|
 A------------------------- ----8~-|
 E-1212-1111-1010-99-88-77- ----6~-|

 


 


 Repeat Chorus:


 


 Outro:


 Repeat the Bridge prt 1:


 The Last Chord of the Song:


 

 
 e--------------|
 B--------------|
 G--------------|
 D--7~----------|
 A--7~----------|
 E--6~----------|


Important: The song above is NOT stored on the Chordie server. The original song is hosted at www.azchords.com. Chordie works as a search engine and provides on-the-fly formatting. Chordie does not index songs against artists'/composers' will. To remove this song please click here.

This song is displayed as text-only. Transposing and tuning is only available for chordpro-songs.
Rate #1 of 1 versions

Jango Player

Login - add to songbook

SHARE PAGE  



You need to log in to post comments