Guitar Tabs, Chords and Lyrics
Server problems seems to be fixed. Chordie has been experiencing problems with songs disappearing. These issues now seems to be fixed, but still verifying the fix. If you find anything strange, please email admin@chordie.com.


In My Secret Life  Katie Melua

Intro:
[Gm] [F] [Bb] [Gm] [F] [Bb]  
 
 e|-----1--3-1--------------------------------------|
 B|--3---------3-1----------------------3-1-1--3----|
 G|----------------3------------------3-------------|
 D|---------------------3-3-5-3---------------------|
 A|-------------------5---------5--1----------------|
 E|-------------------------------------------------|

[Gm] [F] [Bb] [Gm] [F] [Bb]  
 
 e|-----1--3-1--------------------------------------|
 B|--3---------3-1----------------------3-1-1-------|
 G|----------------3------------------3--------3----|
 D|---------------------3-3-5-3---------------------|
 A|-------------------5---------5--1----------------|
 E|-------------------------------------------------|

Verse 1:
[Bb] I saw you this morning, you were movin[Gm]g so fast.
Can't seem to [D#]loosen my grip, on the [F]past.
And I [Bb]miss you so much, there's no one in[Gm] sight.
And we're [D#]still making [Gm]love,[Gm] in my [F]secret [Bb]life,[Gm] in my [F]secret [Bb]life.
Verse 2:
[Bb] I smile when I'm angry, I cheat and I [Gm]lie.
I do [D#]what I have to do, to get[F] by.
But I [Bb]know what is wrong, and I know what is[Gm] right.
And I'd [D#]die for the [F]truth,[Gm] in my [F]secret [Bb]life,[Gm] in my [F]secret [Bb]life.
Bridge:
Hold [Gm]on, hold [F]on, my [D#]brother,
My [Gm]sister, [F]hold on [D#]tight.
I [Gm]finally go[F]t my [D#]orders,
I'll be [D#]marching through the morning, [F]marching through the night,
[D#]Moving 'cross the borders, of my [F]secret life.
Verse 3:
[Bb] Looked through the paper, makes you want to [Gm]cry.
Nobody [D#]cares if the people, live or [F]die.
And the [Bb]dealer wants you thinking, that it's either black [Gm]or white.
Thank [D#]god it's not that [F]simple, in my secret [Bb]life.
Verse 4:
I bite my lip. I buy what I'm [Gm]told.
[D#] [F] 
But I'm [Bb]always alone, and my heart is like [Gm]ice.
And it's [D#]crowded and [F]cold,[Gm] in my [F]secret [Bb]life.
[Gm]In my [F]secret [Bb]life.
[Gm]In my [F]secret [Bb]life.
[Gm]In my [F]secret [Bb]life.

Important: The song above is NOT stored on the Chordie server. The original song is hosted at www.azchords.com. Chordie works as a search engine and provides on-the-fly formatting. Chordie does not index songs against artists'/composers' will. To remove this song please click here.

Text color:
Chord color:
Chord grids: 
Font size:    
Page size: 

Bb D# F Gm
Rate #1 of 2 versions

Login - add to songbook

SHARE PAGE  




You need to log in to post comments