Guitar Tabs, Chords and Lyrics
Server problems seems to be fixed. Chordie has been experiencing problems with songs disappearing. These issues now seems to be fixed, but still verifying the fix. If you find anything strange, please email admin@chordie.com.


Spider's Web  Katie Melua

SPIDER'S WEB
-KATIE MELUA
 
 ----------------

[Am] [E]  
 
 INTRO: e|-0-----------0-----------|-0-----------0-----------|
 B|-1-----1-----1-----1-----|-0-----------0-----------|
 G|-2---2---2---2---2---2---|-1-----1-----1-----1-----| (X2)
 D|-2-2-------2-2-2-------2-|-2---2---2---2---2---2---|
 A|-0-----------0-----------|-2-2-------2-2-2-------2-|
 E|-x-----------x-----------|-0-----------0-----------|

[Am] [E]  
 
 VERSE: e|-0-----------0-----------|-0-----------0-----------|
 B|-1-----1-----1-----1-----|-0-----------0-----------|
 G|-2---2---2---2---2---2---|-1-----1-----1-----1-----| (X2)
 D|-2-2-------2-2-2-------2-|-2---2---2---2---2---2---|
 A|-0-----------0-----------|-2-2-------2-2-2-------2-|
 E|-x-----------x-----------|-0-----------0-----------|

If a black man is racist, is it okay?
If it's the white man's racism that made him that way, Because the...
[F] [C]  
 
 e|-1-----1-----1-----1-----|-0-----------0-----------|
 B|-1---1---1---1---1---1---|-1-----1-----1-----1-----|
 G|-2-2-------2-2-2-------2-|-0-----------0-----------|
 D|-3-----------3-----------|-2---2---2---2---2---2---|
 A|-0-----------0-----------|-3-3-------3-3-3-------3-|
 E|-x-----------x-----------|-x-----------x-----------|

...Bully's the victim they s-ay, by Some...
[Dm] [G]  
 
 e|-1-----1-----1-----1-----|-3-----3-----3-----3-----|
 B|-3---3---3---3---3---3---|-0-----------0-----------|
 G|-2-2-------2-2-2-------2-|-0-----------0-----------|
 D|-0-----------0-----------|-0-----------0-----------|
 A|-x-----------x-----------|-2---2---2---2---2---2---|
 E|-x-----------x-----------|-3-3-------3-3-3-------3-|

...sense they're all the same.
[Am] [E]  
 
 CHORUS: e|-0-----------0-----------|-0-----------0-----------|
 B|-1-----1-----1-----1-----|-0-----------0-----------|
 G|-2---2---2---2---2---2---|-1-----1-----1-----1-----|
 D|-2-2-------2-2-2-------2-|-2---2---2---2---2---2---|
 A|-0-----------0-----------|-2-2-------2-2-2-------2-|
 E|-x-----------x-----------|-0-----------0-----------|

Because the line between, wrong and right, is the
[F] [C] [D]  
 
 e|-1-----1-----1-----1-----|-0-----------2-----2-----|
 B|-1---1---1---1---1---1---|-1-----1-----3---3---3---|
 G|-2-2-------2-2-2-------2-|-0-----------2-2-------2-|
 D|-3-----------3-----------|-2---2---2---0-----------|
 A|-0-----------0-----------|-3-3-------3-X-----------|
 E|-x-----------x-----------|-x-----------x-----------|

width of a thread, from a spider's web.
[Am] [E]  
 
 e|-0-----------0-----------|-0-----------0-----------|
 B|-1-----1-----1-----1-----|-0-----------0-----------|
 G|-2---2---2---2---2---2---|-1-----1-----1-----1-----|
 D|-2-2-------2-2-2-------2-|-2---2---2---2---2---2---|
 A|-0-----------0-----------|-2-2-------2-2-2-------2-|
 E|-x-----------x-----------|-0-----------0-----------|

The piano keys are black and white, But they
[F] [C] [D]  
 
 e|-1-----1-----1-----1-----|-0-----------2-----2-----|
 B|-1---1---1---1---1---1---|-1-----1-----3---3---3---|
 G|-2-2-------2-2-2-------2-|-0-----------2-2-------2-|
 D|-3-----------3-----------|-2---2---2---0-----------|
 A|-0-----------0-----------|-3-3-------3-X-----------|
 E|-x-----------x-----------|-x-----------x-----------|

sound like a million colours in your mi--nd
[Am] [E]  
 
 VERSE 2: e|-0-----------0-----------|-0-----------0-----------|
 B|-1-----1-----1-----1-----|-0-----------0-----------|
 G|-2---2---2---2---2---2---|-1-----1-----1-----1-----| (X2)
 D|-2-2-------2-2-2-------2-|-2---2---2---2---2---2---|
 A|-0-----------0-----------|-2-2-------2-2-2-------2-|
 E|-x-----------x-----------|-0-----------0-----------|

I could tell you to go to war,
Or I could march for peace and fighting no more, How do
[F] [C]  
 
 e|-1-----1-----1-----1-----|-0-----------0-----------|
 B|-1---1---1---1---1---1---|-1-----1-----1-----1-----|
 G|-2-2-------2-2-2-------2-|-0-----------0-----------|
 D|-3-----------3-----------|-2---2---2---2---2---2---|
 A|-0-----------0-----------|-3-3-------3-3-3-------3-|
 E|-x-----------x-----------|-x-----------x-----------|

I know which is right, And I
[Dm] [G]  
 
 e|-1-----1-----1-----1-----|-3-----3-----3-----3-----|
 B|-3---3---3---3---3---3---|-0-----------0-----------|
 G|-2-2-------2-2-2-------2-|-0-----------0-----------|
 D|-0-----------0-----------|-0-----------0-----------|
 A|-x-----------x-----------|-2---2---2---2---2---2---|
 E|-x-----------x-----------|-3-3-------3-3-3-------3-|

hope he does when he sends you to fight.
[Am] [E]  
 
 CHORUS: e|-0-----------0-----------|-0-----------0-----------|
 B|-1-----1-----1-----1-----|-0-----------0-----------|
 G|-2---2---2---2---2---2---|-1-----1-----1-----1-----|
 D|-2-2-------2-2-2-------2-|-2---2---2---2---2---2---|
 A|-0-----------0-----------|-2-2-------2-2-2-------2-|
 E|-x-----------x-----------|-0-----------0-----------|

Because the line between, wrong and right, is the
[F] [C] [D]  
 
 e|-1-----1-----1-----1-----|-0-----------2-----2-----|
 B|-1---1---1---1---1---1---|-1-----1-----3---3---3---|
 G|-2-2-------2-2-2-------2-|-0-----------2-2-------2-|
 D|-3-----------3-----------|-2---2---2---0-----------|
 A|-0-----------0-----------|-3-3-------3-X-----------|
 E|-x-----------x-----------|-x-----------x-----------|

width of a thread, from a spider's web.
[Am] [E]  
 
 e|-0-----------0-----------|-0-----------0-----------|
 B|-1-----1-----1-----1-----|-0-----------0-----------|
 G|-2---2---2---2---2---2---|-1-----1-----1-----1-----|
 D|-2-2-------2-2-2-------2-|-2---2---2---2---2---2---|
 A|-0-----------0-----------|-2-2-------2-2-2-------2-|
 E|-x-----------x-----------|-0-----------0-----------|

The piano keys are black and white, But they
[F] [C] [D]  
 
 e|-1-----1-----1-----1-----|-0-----------2-----2-----|
 B|-1---1---1---1---1---1---|-1-----1-----3---3---3---|
 G|-2-2-------2-2-2-------2-|-0-----------2-2-------2-|
 D|-3-----------3-----------|-2---2---2---0-----------|
 A|-0-----------0-----------|-3-3-------3-X-----------|
 E|-x-----------x-----------|-x-----------x-----------|

sound like a million colours in your miā??nd
[Am] [E]  
 
 VERSE 3: e|-0-----------0-----------|-0-----------0-----------|
 B|-1-----1-----1-----1-----|-0-----------0-----------|
 G|-2---2---2---2---2---2---|-1-----1-----1-----1-----|
 D|-2-2-------2-2-2-------2-|-2---2---2---2---2---2---|
 A|-0-----------0-----------|-2-2-------2-2-2-------2-|
 E|-x-----------x-----------|-0-----------0-----------|

Should we act on a blame?
[F] [E]  
 
 e|-1-----1-----1-----1-----|-0-----------0-----------|
 B|-1---1---1---1---1---1---|-0-----------0-----------|
 G|-2-2-------2-2-2-------2-|-1-----1-----1-----1-----|
 D|-3-----------3-----------|-2---2---2---2---2---2---|
 A|-0-----------0-----------|-2-2-------2-2-2-------2-|
 E|-x-----------x-----------|-0-----------0-----------|

Or should we chase the moments away? Should we...
[Am] [E]  
 
 e|-0-----------0-----------|-0-----------0-----------|
 B|-1-----1-----1-----1-----|-0-----------0-----------|
 G|-2---2---2---2---2---2---|-1-----1-----1-----1-----|
 D|-2-2-------2-2-2-------2-|-2---2---2---2---2---2---|
 A|-0-----------0-----------|-2-2-------2-2-2-------2-|
 E|-x-----------x-----------|-0-----------0-----------|

...live? Should we give?
[F] [C] [D]  
 
 e|-1-----1-----1-----1-----|-0-----------2-----2-----|
 B|-1---1---1---1---1---1---|-1-----1-----3---3---3---|
 G|-2-2-------2-2-2-------2-|-0-----------2-2-------2-|
 D|-3-----------3-----------|-2---2---2---0-----------|
 A|-0-----------0-----------|-3-3-------3-X-----------|
 E|-x-----------x-----------|-x-----------x-----------|

Remember forever the guns and the feathers in time.
[Am] [E]  
 
 CHORUS: e|-0-----------0-----------|-0-----------0-----------|
 B|-1-----1-----1-----1-----|-0-----------0-----------|
 G|-2---2---2---2---2---2---|-1-----1-----1-----1-----|
 D|-2-2-------2-2-2-------2-|-2---2---2---2---2---2---|
 A|-0-----------0-----------|-2-2-------2-2-2-------2-|
 E|-x-----------x-----------|-0-----------0-----------|

Because the line between, wrong and right, is the
[F] [C] [D]  
 
 e|-1-----1-----1-----1-----|-0-----------2-----2-----|
 B|-1---1---1---1---1---1---|-1-----1-----3---3---3---|
 G|-2-2-------2-2-2-------2-|-0-----------2-2-------2-|
 D|-3-----------3-----------|-2---2---2---0-----------|
 A|-0-----------0-----------|-3-3-------3-X-----------|
 E|-x-----------x-----------|-x-----------x-----------|

width of a thread, from a spider's web.
[Am] [E]  
 
 e|-0-----------0-----------|-0-----------0-----------|
 B|-1-----1-----1-----1-----|-0-----------0-----------|
 G|-2---2---2---2---2---2---|-1-----1-----1-----1-----|
 D|-2-2-------2-2-2-------2-|-2---2---2---2---2---2---|
 A|-0-----------0-----------|-2-2-------2-2-2-------2-|
 E|-x-----------x-----------|-0-----------0-----------|

The piano keys are black and white, But they
[F] [C] [D]  
 
 e|-1-----1-----1-----1-----|-0-----------2-----2-----|
 B|-1---1---1---1---1---1---|-1-----1-----3---3---3---|
 G|-2-2-------2-2-2-------2-|-0-----------2-2-------2-|
 D|-3-----------3-----------|-2---2---2---0-----------|
 A|-0-----------0-----------|-3-3-------3-X-----------|
 E|-x-----------x-----------|-x-----------x-----------|

sound like a million colours in your miā??nd
[Am] [E]  
 
 CHORUS: e|-0-----------0-----------|-0-----------0-----------|
 B|-1-----1-----1-----1-----|-0-----------0-----------|
 G|-2---2---2---2---2---2---|-1-----1-----1-----1-----|
 D|-2-2-------2-2-2-------2-|-2---2---2---2---2---2---|
 A|-0-----------0-----------|-2-2-------2-2-2-------2-|
 E|-x-----------x-----------|-0-----------0-----------|

[F] [C] [D]  
 
 e|-1-----1-----1-----1-----|-0-----------2-----2-----|
 B|-1---1---1---1---1---1---|-1-----1-----3---3---3---|
 G|-2-2-------2-2-2-------2-|-0-----------2-2-------2-|
 D|-3-----------3-----------|-2---2---2---0-----------|
 A|-0-----------0-----------|-3-3-------3-X-----------|
 E|-x-----------x-----------|-x-----------x-----------|

[Am] [E]  
 
 e|-0-----------0-----------|-0-----------0-----------|
 B|-1-----1-----1-----1-----|-0-----------0-----------|
 G|-2---2---2---2---2---2---|-1-----1-----1-----1-----|
 D|-2-2-------2-2-2-------2-|-2---2---2---2---2---2---|
 A|-0-----------0-----------|-2-2-------2-2-2-------2-|
 E|-x-----------x-----------|-0-----------0-----------|

[F] [C] [D]  
 
 e|-1-----1-----1-----1-----|-0-----------2-----2-----|
 B|-1---1---1---1---1---1---|-1-----1-----3---3---3---|
 G|-2-2-------2-2-2-------2-|-0-----------2-2-------2-|
 D|-3-----------3-----------|-2---2---2---0-----------|
 A|-0-----------0-----------|-3-3-------3-X-----------|
 E|-x-----------x-----------|-x-----------x-----------|

[Am] [E]  
 
 CHORUS: e|-0-----------0-----------|-0-----------0-----------|
 B|-1-----1-----1-----1-----|-0-----------0-----------|
 G|-2---2---2---2---2---2---|-1-----1-----1-----1-----|
 D|-2-2-------2-2-2-------2-|-2---2---2---2---2---2---|
 A|-0-----------0-----------|-2-2-------2-2-2-------2-|
 E|-x-----------x-----------|-0-----------0-----------|

The piano keys are black and white, But they
[F] [C] [D]  
 
 e|-1-----1-----1-----1-----|-0-----------2-----2-----|
 B|-1---1---1---1---1---1---|-1-----1-----3---3---3---|
 G|-2-2-------2-2-2-------2-|-0-----------2-2-------2-|
 D|-3-----------3-----------|-2---2---2---0-----------|
 A|-0-----------0-----------|-3-3-------3-X-----------|
 E|-x-----------x-----------|-x-----------x-----------|

sound like a million colours in your miā??nd
[Am] [E]  
 
 e|-0-----------0-----------|-0-----------0-----------|
 B|-1-----1-----1-----1-----|-0-----------0-----------|
 G|-2---2---2---2---2---2---|-1-----1-----1-----1-----|
 D|-2-2-------2-2-2-------2-|-2---2---2---2---2---2---|
 A|-0-----------0-----------|-2-2-------2-2-2-------2-|
 E|-x-----------x-----------|-0-----------0-----------|

They
[F] [C] [D]  
 
 e|-1-----1-----1-----1-----|-0-----------2-----2-----|
 B|-1---1---1---1---1---1---|-1-----1-----3---3---3---|
 G|-2-2-------2-2-2-------2-|-0-----------2-2-------2-|
 D|-3-----------3-----------|-2---2---2---0-----------|
 A|-0-----------0-----------|-3-3-------3-X-----------|
 E|-x-----------x-----------|-x-----------x-----------|

sound like a million colours in your miā??nd
[Am]  
 
 e|-0-----------------------|
 B|---1---------------------|
 G|-----2-------------------|
 D|-------2-----------------|
 A|---------0---------------|
 E|-------------------------|


Important: The song above is NOT stored on the Chordie server. The original song is hosted at www.azchords.com. Chordie works as a search engine and provides on-the-fly formatting. Chordie does not index songs against artists'/composers' will. To remove this song please click here.

Text color:
Chord color:
Chord grids: 
Font size:    
Page size: 

Am C D Dm E F G
Rate #1 of 5 versions

Jango Player

Login - add to songbook

SHARE PAGE  




You need to log in to post comments