Guitar Tabs, Chords and Lyrics
Major upgrade!! After one year development the new version of Chordie is now online! Please give feedback.


Bedshaped  Keane

Intro:
 
 e|-14(x8)-16(x8)-9(X16)(*2nd time x21)--------|
 B|--------------------------------------------|
 G|--------------------------------------------| (x2)
 D|--------------------------------------------|
 A|--------------------------------------------|
 D|--------------------------------------------|

Piano part:
 
 e|---------0--------------------------------------------|
 B|-----------4----------2-0---------2-0-----------------|
 G|-(1)-1-1------(1)-1-1---------------------------------|
 D|--------------------------(2)-2-2-----(1)-1-1-2-2-(2)-|
 A|------------------------------------------------------|
 D|------------------------------------------------------|
 e|------0-----------------------------------------------|
 B|--------4----------2-0-2---------2-0------------------|
 G|-----------(1)-1-1------------------------------------|
 D|--2-2--------------------(2)-2-2-----(1)-1-1-2-2-(2)--|
 A|------------------------------------------------------|
 D|------------------------------------------------------|

Verse 1:
[E] [Amaj7]Many's the time I ran with you d[C#m]own,
The ra[B]iny roads of our old t[E]own,
[Amaj7]Many the lives we lived in each [C#m]day,
And bu[B]ried altogether
Bridge:
Don't [C#m]laugh at [G#]me,
Don't [D#m]look a[B]way
You'll f[B]ollow me back
Chorus:
With the s[F#]un in in your eyes,
And [E]on your own, b[C#m]edshaped
Your l[B]egs of stone
You'll k[F#]nock on my door,
And [E]up we'll go,
In [C#m]white light,
I d[B]on't think so
But [(A)]what do I know?[(F#m)] What do I know?
[E]I know
Verse 2:
[E] [Amaj7]I know you think I'm holding you [C#m]down,
And I've f[B]allen by the wayside n[E]ow,
And I [Amaj7]don't understand the same things as [C#m]you,
But I [B]do
Bridge:
Don't [C#m]laugh at [G#]me,
Don't [D#m]look a[B]way
You'll f[B]ollow me back
Chorus:
With the s[F#]un in in your eyes,
And [E]on your own, b[C#m]edshaped
Your l[B]egs of stone
You'll k[F#]nock on my door,
And [E]up we'll go,
In [C#m]white light,
I d[B]on't think so
But [(A)]what do I know?[(F#m)] What do I know?
[E]I know
Instrumental (piano part):
 
 e|--------------------------------------------|
 B|-------------(4)----------------------------|
 G|-1-1-2-2-4-4--------------------------------|
 D|--------------------------------------------|
 A|--------------------------------------------|
 D|--------------------------------------------|

E, Amaj7, C#m, B
Solo:
 
 e|-0(x8)---------------------------------|
 B|-------2(x11)--------------------------|
 G|--------------1-4-1-4-1----------------|
 D|------------------------(4)-(2)---2----|
 A|--------------------------------4---4--|
 D|---------------------------------------|
 e|-0(x7)-4---------------------------------|
 B|---------2(x11)--------------------------|
 G|----------------1-4-1-4-1----------------|
 D|--------------------------(4)-(2)---2----|
 A|----------------------------------4---4--|
 D|-----------------------------------------|

[F#]Oh,
And [E]up we'll go,
In [C#m]white light,
I d[B]on't think so
But [(A)]what do I know?[(F#m)] What do I know?
[E]I know

Important: The song above is NOT stored on the Chordie server. The original song is hosted at www.azchords.com. Chordie works as a search engine and provides on-the-fly formatting. Chordie does not index songs against artists'/composers' will. To remove this song please click here.

Text color:
Chord color:
Chord grids: 
Font size:    
Page size: 

Amaj7 B C#m D#m E F# G#
Rate #1 of 9 versions

Jango Player

Login - add to songbook

SHARE PAGE  




You need to log in to post comments