Guitar Tabs, Chords and Lyrics
Server problems seems to be fixed. Chordie has been experiencing problems with songs disappearing. These issues now seems to be fixed, but still verifying the fix. If you find anything strange, please email admin@chordie.com.


Jungle   KISS

 
 E|-----------------------------------------------------------|
 B|-----------------------------------------------------------|
 G|-------7----7\5~----------------12-----12\10~--------------|
 D|--5/7-----7-7\5~---------10/12------12-12\10~--------------|
 A|-----------------------------------------------------------|
 D|-----------------------------------------------------------|
 Let ring - - > Let ring - - - - - >
 E|-----------------------------------------------------------|
 B|-----------------------------------------------------------|
 G|-------7----7\5~-----------------------\-------------------|
 D|--5/7-----7-7\5~-----------------------\-------------------|
 A|-----------------------------------------------------------|
 D|-----------------------------------------------------------|

 


 Let ring - - >


 


 Rhythm Fig. 2


 

 
 E|-----------------------------------------------------------|
 B|-----------------------------------------------------------|
 G|-----------------------------------------------------------|
 D|-----------------------------------------------------------|
 A|-----------------------------------------------------------|
 D|--0---0-3p0-0-5p0-0-3----12\-------------------------------|

 


 


 


 Rhythm Fig. 3


 

 
 E|-----------------------------------------------------------|
 B|-----------------------------------------------------------|
 G|-----------------------------------------------------------|
 D|-----------------------------------------------------------|
 A|------5-----5-----5-----5-----5~---------------------------|
 D|--0h3---0h5---0h3---0h5---0h3------------------------------|

 


 


 


 Rhythm Fig. 4a


 

 
 E|-----------------------------------------------------------|
 B|-----------------------------------------------------------|
 G|--7~--5~--2~---0h2-0h2-----0---2~--3~--2~--0---------------|
 D|--0---0---0----0---0---0---0---0---0---0---0--3------------|
 A|-----------------------------------------------------------|
 D|-----------------------------------------------------------|
 < - - - - - 3x - - - - >

 


 


 [End] [1]  


 

 
 E|-----------------------------------------------------------|
 B|-----------------------------------------------------------|
 G|--3~--2~--3~--2~--0----------------------------------------|
 D|--0---0---0---0---0--3-------------------------------------|
 A|-----------------------------------------------------------|
 D|-----------------------------------------------------------|

 


 


 


 Rhythm Fig. 4b


 

 
 E|-----------------------------------------------------------|
 B|-----------------------------------------------------------|
 G|--7~--5~--2~---0h2-2p0-----0---2~--3~--2~--0---------------|
 D|--0---0---0----0-------0---0---0---0---0---0--3------------|
 A|-----------------------------------------------------------|
 D|-----------------------------------------------------------|
 < - - - - - 3x - - - - >

 


 


 [End] [1]  


 

 
 E|-----------------------------------------------------------|
 B|-----------------------------------------------------------|
 G|--3~--2~--3~--2~--0----------------------------------------|
 D|--0---0---0---0---0--3-------------------------------------|
 A|-----------------------------------------------------------|
 D|-----------------------------------------------------------|

 


 


 Rhythm Fig. 5


 

 
 E|-----------------------------------------------------------|
 B|-----------------------------------------------------------|
 G|-----------------------------------------------------------|
 D|--0h2-2-0-2--0-2--0-2-0-2/3---0h2-2-0-2--0-2--5-5-5-5-4-3--|
 A|--0h2-2-0-2--0-2--0-2-0-2/3---0h2-2-0-2--0-2--5-5-5-5-4-3--|
 D|--0h2-2-0-2--0-2--0-2-0-2/3---0h2-2-0-2--0-2--5-5-5-5-4-3--|
 E|-----------------------------------------------------------|
 B|-----------------------------------------------------------|
 G|-----------------------------------------------------------|
 D|--0h2-2-0-2--0-2--0-2-0-2/3----0h2-2-0-2--0----------------|
 A|--0h2-2-0-2--0-2--0-2-0-2/3----0h2-2-0-2--0----------------|
 D|--0h2-2-0-2--0-2--0-2-0-2/3----0h2-2-0-2--0-5b^------------|
 < - - - - - - - - - - - - - 2x - - - - - - - - - - - - >
 E|-----------------------------------------------------------|
 B|-----------------------------------------------------------|
 G|-----------------------------------------------------------|
 D|--0h2-2-0-2--0------------0-2--0-2--0-3--------------------|
 A|--0h2-2-0-2--0------------0-2--0-2--0-3--------------------|
 D|--0h2-2-0-2--0-5b^--------0-2--0-2--0-3--------------------|

 


 


 


 Rhythm Fig. 6


 

 
 E|-----------------------------------------------------------|
 B|-----------------------------------------------------------|
 G|--7---5---2----0h2-0h2-----0---2~--3~--5~--7--5------------|
 D|--0---0---0----0---0---0---0---0---0---0---0--0------------|
 A|-----------------------------------------------------------|
 D|-----------------------------------------------------------|
 < - - - - - 3x - - - - >
 E|-----------------------------------------------------------|
 B|-----------------------------------------------------------|
 G|--7~--9~--10~--12~--14--12---15~--17~--19~--21~--22--21----|
 D|--0---0---0----0----0---0----0----0----0----0----0---0-----|
 A|-----------------------------------------------------------|
 D|-----------------------------------------------------------|

 


 


 


 


 Riff 1


 


 

 
 E|--22-------------------------------------------------------|
 B|-----22----------------------------------------------------|
 G|--------22~------------------------------------------------|
 D|-----------------------------------------------------------|
 A|-----------------------------------------------------------|
 D|-----------------------------------------------------------|

 


 


 


 Riff 2 (with wah-wah pedal)


 


 

 
 E|-----------------------------------------------------------|
 B|-----------------------------------------------------------|
 G|--x-x---x-x------------------------x-x-x-x-x-x-x-x---------|
 D|--x-x---x-x----------0-------------x-x-x-x-x-x-x-x---------|
 A|--x-x---x-x------------3p0-3/5-----x-x-x-x-x-x-x-x---------|
 D|-----------------------------------------------------------|
 < - - - - - - 2x - - - - - - >

 


 


 


 Riff 3


 


 

 
 E|-----------------------------------------------------------|
 B|------------------------------------------------6~---------|
 G|------------------------------------------------5~---------|
 D|---------------------------------5b------------------------|
 A|---------------------5b^^----------------------------------|
 D|--5b-------------------------------------------------------|

 


 Very slow bend


 


 


 Solo


 


 

 
 E|-----------------------------------------------------------|
 B|--13-------------------13----------------------------------|
 G|--12b~-----------------12---14---12---12b----11--12b~------|
 D|-----------------------12---14---12------------------------|
 A|-----------------------------------------------------------|
 D|-----------------------------------------------------------|

 


 Vibrato w/ bar


 


 

 
 E|----------------------13\12--------------------------------|
 B|------------15b~------------15~-------13--12--12b^-r12-----|
 G|-----------------------------------------------------------|
 D|--\--------------------------------------------------------|
 A|--\--------------------------------------------------------|
 D|-----------------------------------------------------------|
 E|-----------------------------------------------------------|
 B|-----------------------------------------------------------|
 G|--14~------------------------------------------------------|
 D|-----------------------------------------------------------|
 A|-----------------------------------------------------------|
 D|-----------------------------------------------------------|

 


 | |


 | |


 | |


 

 
 E|-----------------------------------------------------------|
 B|--15~------------------------------------------------------|
 G|-----------------------------------------------------------|
 D|-----------------------------------------------------------|
 A|-----------------------------------------------------------|
 D|-----------------------------------------------------------|

 


 Very nervous vibrato


 


 


 


 Outro mayhem


 

 
 E|---------------------------10h12---------------------------|
 B|-----------------------10--------10~-----------------------|
 G|--19~---------------10-------------------------------------|
 D|-----------------12----------------------------------------|
 A|-----------------------------------------------------------|
 D|-----------------------------------------------------------|

 


 | Let ring - - - - > |


 | |


 | |


 

 
 E|---------------------------------------------------17------|
 B|-------------------------------------------------------18--|
 G|--19~------------------------------------------------------|
 D|-----------------------------------------------------------|
 A|-----------------------------------------------------------|
 D|-----------------------------------------------------------|
 E|-----------------------------------------------------------|
 B|-----------------------------------------------------------|
 G|-----------------------------------------------------------|
 D|-----------------------------------------------------------|
 A|-----------------------------------------------------------|
 D|-----------------------------------------------------------|

 


 | Feedback |


 | |


 | |


 

 
 E|-----------------------------------------------------------|
 B|-----------------------------------------------------------|
 G|--17~------------------------------------------------------|
 D|-----------------------------------------------------------|
 A|-----------------------------------------------------------|
 D|-----------------------------------------------------------|
 E|-----------------------------------------------------------|
 B|-----------------------------------------------------------|
 G|---0-------------------------------------------------------|
 D|-----3p0-3~-0---0-0----------------------------------------|
 A|--------------3-----3p0-3-0--------------------------------|
 D|-----------------------------------------------------------|

 


 | |


 | |


 | |


 

 
 E|-----------------------------------------------------------|
 B|-----------------------------------------------------------|
 G|-----------------------------------------------------------|
 D|-----------------------------------------------------------|
 A|-----------------------------------------------------------|
 D|-----------------------------------------------------------|
 E|-----------------------------------------------------------|
 B|-----------------------------------------------------------|
 G|---0-------------------------------------------------------|
 D|-----3p0-3~-0---0-0---------------------5---3---5\---------|
 A|--------------3-----3p0-3----------------------------------|
 D|--------------------------3~------------5---3---5\---------|

 


 | |


 | |


 | |


 

 
 E|-----------------------------------------------------------|
 B|-----------------------------------------------------------|
 G|---0-------------------------------------------------------|
 D|-----3p0-3~-0---0-0---------------------5---3---5\---------|
 A|--------------3-----3p0-3----------------------------------|
 D|--------------------------3~------------5---3---5\---------|
 E|---------------------13-(\/)(\/)(\/)-----------------------|
 B|-----------------------------------------------------------|
 G|-----------------------------------------0-----------------|
 D|----0------------------------------------0-----------------|
 A|-----0-----------------------------------0-----------------|
 D|------0----------------------------------0-----------------|

 


 | Fade in |


 | |


 | |


 

 
 E|--------------------------------------------13~------------|
 B|--13---(\/)(\/)(\/)(\/)------------------------------------|
 G|-----------------------------------------------------------|
 D|-----------------------------------------------------------|
 A|-----------------------------------------------------------|
 D|-----------------------------------------------------------|
 E|-----------------------------------------------------------|
 B|-----------------------------------------------------------|
 G|----------------------------------------------------7*-----|
 D|-------------------------------------------------------7*--|
 A|------------------------------10(\/)p8---------------------|
 D|--0------------------0-------------------------------------|

 


 | < - 3x - > |


 | |


 | |


 

 
 E|-------22--------------------------------------------------|
 B|-----------22----------------------------------------------|
 G|---------------22~------------12(\/)p10--------------------|
 D|-----------------------------------------------------------|
 A|-----------------------------------------------------------|
 D|---------------------------------------------0-------------|

 


 Let ring - > < - 3x - >


 


 


 

 
 E|--------------------13-(\/)(\/)(\/)------------------------|
 B|----------------------------------------------------x------|
 G|-------------------------------------------------------x---|
 D|-----------------------------------------------------------|
 A|-----------------------------------------------------------|
 D|-----------------------------------------------------------|

 


 | |


 | |


 | |


 

 
 E|---------------------------------------------22~-----------|
 B|-----------------------------------------------------------|
 G|---10~-----------------------------------------------------|
 D|-----------------------------------------------------------|
 A|-----------------------------------------------------------|
 D|-------------------------------------0---------------------|

 


 Wide, nervous vib. Let ring - - >


 


 


 

 
 E|-----------------------------------------------------------|
 B|--13~---(\/)-(\/)-(\/)-(\/)-(\/)---------------------------|
 G|-----------------------------------------------------------|
 D|-----------------------------------------------------------|
 A|-----------------------------------------------------------|
 D|----------------------------------------0------------------|

 


 | |


 | |


 | |


 

 
 E|-----------------------------------------------------------|
 B|---------------------13~-----------------------------------|
 G|---------------------x-------------------------------------|
 D|-----------------------------------------------------------|
 A|-----------------------------------------------------------|
 D|--0------------------------------0-------------------------|
 E|-----------------------------------------------------------|
 B|--------------------13-(\/)-----(\/)-----------------------|
 G|-----------------------------------------------------------|
 D|-----------------------------------------------------------|
 A|-----------------------------------------------------------|
 D|-----------------------------------------------------------|

 


 | |


 | |


 | |


 

 
 E|-----------------------------------------------------------|
 B|-----------------------------------------------------------|
 G|-----------------------------------------------------------|
 D|-----------------------------------------------------------|
 A|-----------------------------------------------------------|
 D|-----------------------------------------------------------|

 


 Feedback


 


 


 

 
 E|-----------------------------------------------------------|
 B|-----------------------------------------------------------|
 G|-----------------------------------------------------------|
 D|-----------------------------------------------------------|
 A|-------------5p3--5p3--5p-3--5p3--5p3--5p3--5p3--5p3--5p3--|
 D|-----------------------------------------------------------|

 


 | |


 | |


 | |


 

 
 E|-----------------------------------------------------------|
 B|-----------------------------------------------------------|
 G|--------------------------------10~------------------------|
 D|-----------------------------------------------------------|
 A|-----------------------------------------------------------|
 D|-----------------------------------------------------------|
 E|-----------------------------------------------------------|
 B|-----------------------------------------------------------|
 G|-----------------------------------------------------------|
 D|-------------------------------------------------------5p0-|
 A|---5p3--5p3--5p3--5p3--5p3---5~----------------------------|
 D|-----------------------------------------------------------|

 


 | |


 | |


 | |


 

 
 E|-----------------------------------------------------------|
 B|-----------------------------------------------------------|
 G|-----------------------------------------------------------|
 D|----5p3--5p3--5p3--5p3--5p3--5p3--5p3--5(3)----------------|
 A|-----------------------------------------------------------|
 D|-----------------------------------------------------------|
 E|-------------------------------------------17--------------|
 B|-----------------------------------------------18----------|
 G|--------------------------------------------------17-------|
 D|-----------------------------------------------------------|
 A|-----------------------------------------------------------|
 D|--0-(\)----------------------------------------------------|

 


 | Let ring |


 | |


 | |


 

 
 E|-----------------------------------------------------------|
 B|-----------------------------------------------------------|
 G|-----------------------------------------------------------|
 D|-----------------------------------------------------------|
 A|-----------------------------------------------------------|
 D|-----------------------------------------------------------|
 E|-----------------------------------------------------------|
 B|-----------------------------------------------------------|
 G|--------------------4*(/)----------------------------------|
 D|-----------------------------------------------------------|
 A|-----------------------------------------------------------|
 D|---------------------------------------0-------------------|

 


 | |


 | |


 | |


 

 
 E|-----------------------------------------------------------|
 B|-----------------------------------------------------------|
 G|----------------------------------------------5b---x(0)----|
 D|-----------------------------------------------------------|
 A|-----------------------------------------------------------|
 D|--0--------------------------------------------------------|


Important: The song above is NOT stored on the Chordie server. The original song is hosted at www.azchords.com. Chordie works as a search engine and provides on-the-fly formatting. Chordie does not index songs against artists'/composers' will. To remove this song please click here.

This song is displayed as text-only. Transposing and tuning is only available for chordpro-songs.
Rate #2 of 3 versions

Jango Player

Login - add to songbook

SHARE PAGE  




You need to log in to post comments