Guitar Tabs, Chords and Lyrics
Server problems seems to be fixed. Chordie has been experiencing problems with songs disappearing. These issues now seems to be fixed, but still verifying the fix. If you find anything strange, please email admin@chordie.com.


All I Want  Kodaline

INTRO [-----]
[-----]C (alternate with C and C9)
[-----]VERSE
[-----]  
A[C]ll I want is [F]nothing [C]more
To [C]hear you knocking [G]at my [Am]door
'Cause if [F]I could see your face once [C]more
I could [F]die as a happy man I'm [C]sure
[C]When you said your [F]last good[C]bye
I [C]died a little [G]bit in[Am]side
I [F]lay in tears in bed all nig[C]ht
Al[F]one without you by my s[C]ide[G]
 
 ------

CHORUS
 
 ------

But if you [Am]loved me
Why did you [F]leave me
Take my [C]body, take my [G]body
All I [Am]want is, and all I [F]need is
To find some[C]body
G C (Begin the Ohh's part)
I'll find somebody like you
 
 ----------

Ohh's part - (This is what the piano do, trasncribed for guitar.)
 
 ----------

[C] [F] [C]  
 
 e|---------------------------------------------------------------------------------------|
 B|--5-----5-----5-----5-----6-----6-----5-----5-----5-----5-----5-----5-----5-----5------|
 G|----5-----5-----5-----5-----5-----5-----5-----5-----5-----5-----5-----5-----5-----5----|
 D|------5-----5-----5-----5-----5-----5-----5-----5-----5-----5-----5-----5-----5-----5--|
 A|---------------------------------------------------------------------------------------|
 E|---------------------------------------------------------------------------------------|

[C] [G] [Am]  
 
 e|---------------------------------------------------------------------------------------|
 B|--5-----5-----5-----5-----6-----6-----5-----5-----5-----5-----5-----5-----5-----5------|
 G|----5-----5-----5-----5-----7-----7-----5-----5-----5-----5-----5-----5-----5-----5----|
 D|------5-----5-----5-----5-----5-----5-----7-----7-----7-----7-----7-----7-----7-----7--|
 A|---------------------------------------------------------------------------------------|
 E|---------------------------------------------------------------------------------------|

[F] [C]  
 
 e|---------------------------------------------------------------------------------------|
 B|--6-----6-----6-----6-----6-----6-----5-----5-----5-----5-----5-----5-----5-----5------|
 G|----5-----5-----5-----5-----5-----5-----5-----5-----5-----5-----5-----5-----5-----5----|
 D|------7-----7-----7-----7-----7-----7-----5-----5-----5-----5-----5-----5-----5-----5--|
 A|---------------------------------------------------------------------------------------|
 E|---------------------------------------------------------------------------------------|

[F] [C]  
 
 e|---------------------------------------------------------------------------------------|
 B|--3-----3-----3-----3-----3-----3------------------------------------------------------|
 G|----5-----5-----5-----5-----5-----5----5-----------------------------------------------|
 D|------3-----3-----3-----3-----3-----3--------------------------------------------------|
 A|---------------------------------------------------------------------------------------|
 E|---------------------------------------------------------------------------------------|
 ----- ------

Then you play the VERSE and the CHORUS the same way
 
 ----- ------

[----]SOLO - Eletric guitar
[----]  
[Dm] [G] [Dm] [G]  
 
 [e|---10-8-7--|Piano]
 e|--5~----5--7--8--7~---------8--7--5~---5-----------3---3---3---5---5---5---7---7---7---|
 B|--6~-------------8~---------------6~-----6---------------------------------------------|
 G|--7~-------------7~---------------7~--------7--------0---0---0---2---2---2---4---4---4-|
 D|---------------------------------------------------------------------------------------|
 A|---------------------------------------------------------------------------------------|
 E|---------------------------------------------------------------------------------------|

(Whooah...) Am
 
 e|--8---8---8---10--10--10--12--12--12--13---13---13---15---15---15----------------------|
 B|-------------------------------------------------------------------------13------------|
 G|----5---5---5---7---7---7---9---9---9---10---10---10---12---12---12------14------------|
 D|-------------------------------------------------------------------------14------------|
 A|-------------------------------------------------------------------------12------------|
 E|---------------------------------------------------------------------------------------|

[F] [C] [G] [Am] [F] [C] [G]  
 
 e|---------------------------------------------------------------------------------------|
 B|--------------8----------------------------13----------------------8-------------------|
 G|--14----------9-----------4---5---4--------14----------14----------9-----------12------|
 D|--15----------10----------5---x---5--------14----------15----------10----------12------|
 A|--15----------10----------5---5---5--------12----------15----------10----------10------|
 E|--13----------------------3---3---3--------------------13------------------------------|

(Just put the chords in this part, but the rhythm is almost the same as acoustic guitar,
except that you don't strum the string all the time.)
[Am] [F] [C]  
 
 e|---|---------------------------|---------------------------|---------------------------|
 B|---|-13--13--13--13--13--13----|-15--15--15--15--15--15----|-17--17--17--17--17--17----|
 G|---|º-------------------------º|º-------------------------º|º-------------------------º|
 D|-14|º--14--14--14--14--14--14-º|º--15--15--15--15--15--15-º|º-------------------------º|
 A|---|---------------------------|---------------------------|---15--15--15--15--15--15--|
 E|---|---------------------------|---------------------------|---------------------------|

[G] [Am]  
 
 e|--------------------------------------------------------------15-----------15----------|
 B|-15--15--15---13--13--13---12--12--12---13--13--13--------13------13---13------13------|
 G|---12--12--12---12--12--12---12--12--12---12--12--12----14--14--14---14--14--14--------|
 D|---------------------------------------------------------------------------------------|
 A|---------------------------------------------------------------------------------------|
 E|---------------------------------------------------------------------------------------|

[F]  
 
 e|-------15-----------15------------17-----------17-----------17--------19--19--19-------|
 B|---13------13---13------13----18------18---18------18---18------18---------------------|
 G|-14--14--14---14--14--14----17--17--17---17--17--17---17--17--17----17--17--17---------|
 D|---------------------------------------------------------------------------------------|
 A|---------------------------------------------------------------------------------------|
 E|---------------------------------------------------------------------------------------|

[C] [G]  
 
 e|-20---20---20---20---20---20---20---20---20---20---20---20----19--19--19--17--17--17---|
 B|--(17)-(17)-(17)-(17)-(17)-(17)-(17)-(17)-(17)-(17)-(17)-(17)--------------------------|
 G|---17---17---17---17---17---17---17---17---17---17---17---17----17--17--17--17--17--17-|
 D|---------------------------------------------------------------------------------------|
 A|---------------------------------------------------------------------------------------|
 E|---------------------------------------------------------------------------------------|
 e|---------------------------------------------------------------------------------------|
 B|-20--20--20--18--18--18----17~---------------------------------------------------------|
 G|---17--17--17--17--17--17--17~---------------------------------------------------------|
 D|---------------------------------------------------------------------------------------|
 A|---------------------------------------------------------------------------------------|
 E|---------------------------------------------------------------------------------------| 


Important: The song above is NOT stored on the Chordie server. The original song is hosted at www.azchords.com. Chordie works as a search engine and provides on-the-fly formatting. Chordie does not index songs against artists'/composers' will. To remove this song please click here.

Text color:
Chord color:
Chord grids: 
Font size:    
Page size: 

Am C Dm F G
Rate #1 of 11 versions

Jango Player

Login - add to songbook

SHARE PAGE  



You need to log in to post comments