Guitar Tabs, Chords and Lyrics
Server problems seems to be fixed. Chordie has been experiencing problems with songs disappearing. These issues now seems to be fixed, but still verifying the fix. If you find anything strange, please email admin@chordie.com.


Brand New Day  Kodaline

[A] [B] [E] [C#m]  
 
 e-x---x---0---4-|
 B-2---4---0---5-|
 G-2---4---1---6-|
 D-2---4---2---6-|
 A-0---2---2---4-|
 E-x---x---0---x-|

Intro riff with the electric guitar :
I)
 
 e ------0----0-------0---0---0---0---0---|
 B -5/14---14---14-12---7---7---9---9---9-|
 G ---------------------------------------|
 D ---------------------------------------|
 A ---------------------------------------|
 E ---------------------------------------|

II)
 
 e ------0----0-------0---0---0---0---0---|
 B -9/14---14---14-12---7---7---5---5---5-|
 G ---------------------------------------|
 D ---------------------------------------|
 A ---------------------------------------|
 E ---------------------------------------|

III)
 
 e ------0----0-------0---0---0---0-------|
 B -5/14---14---14-12---7---7---9---9-7-5-|
 G ---------------------------------------|
 D ---------------------------------------|
 A ---------------------------------------|
 E ---------------------------------------|

Play the I, than the II than the III for the intro, when the electric guitar plays alone.
The whole song goes with the I and the II.
The rythm acoustic guitar plays chords all along with the riff, like this :
I)
[A] [E] [B] [E]  
 
 e ------0----0-------0---0---0---0---0---|
 B -5/14---14---14-12---7---7---9---9---9-|
 G ---------------------------------------|
 D ---------------------------------------|
 A ---------------------------------------|
 E ---------------------------------------|

II)
[A] [E] [B] [E]  
 
 e ------0----0-------0---0---0---0---0---|
 B -9/14---14---14-12---7---7---5---5---5-|
 G ---------------------------------------|
 D ---------------------------------------|
 A ---------------------------------------|
 E ---------------------------------------|

Then Play the chords normally :
(The solo guitar plays the riff in the chorus)
Well it's your home[A]town
I think I've out[E]grown
I wanna travel the [A]world but I, I just can't do it a[E]lone
So I'm just waiting on [A]fate to come.
Wrap around [E]me
Think about [A]all the foreign places we could [B]be
*CHORUS :
[A]I'll be flicking [E]stones at [B]your win[E]dow
I'll be [A]waiting out[E]side 'til you're [B]ready to [E]go
[A]Won't you come [E]down? Come a[B]way with [E]me
Just [A]think of all the [E]places [B]we could [E]be
I'll be [A]waiting,[E] [B]waiting on a [E]brand new day
Then play this little riff :
 
 e-------------------------|
 B-5/10--10-10-10-9--9\5-5-|
 G-------------------------|
 D-------------------------|
 A-------------------------|
 E-------------------------|

Continue with the I and II riffs, after that play the chords normally with the acoustic
guitar :
Riding on [A]waves, walking on [E]sand
Digging in [A]caves to find the treasures of the [E]land
And if we find [A]gold, we'll just throw it a[E]way
We can write [A]stories bout the journeys that we [B]made
*CHORUS :
[A]I'll be flicking [E]stones at [B]your win[E]dow
I'll be [A]waiting out[E]side 'til you're [B]ready to [E]go
[A]Won't you come [E]down? Come a[B]way with [E]me
Just [A]think of all the [E]places [B]we could [E]be
I'll be [A]waiting,[E] [B]waiting on a brand new [E]day
Waiting on a brand new
[C#m]They said they'll keep me [A]here
But I couldn't do another [C#m]year
I said I'll see you [A]soon
Because I whistle to a different [B]tune
*CHORUS :
[A] ||only the ri[E]ff||[B] [E]
[A]Think of all the [E]places [B]we could [E]be
[A] ||only the ri[E]ff||[B] [E]
[A]Think of all the [E]people [B]we could [E]meet
[A]I'll be flicking [E]stones at [B]your win[E]dow
I'll be [A]waiting out[E]side 'til you're [B]ready to [E]go
[A]Won't you come [E]down? Come a[B]way with [E]me
Just [A]think of all the [E]places [B]we could [E]be
I'll be waiting, waiting on a brand new [E]day

Important: The song above is NOT stored on the Chordie server. The original song is hosted at www.azchords.com. Chordie works as a search engine and provides on-the-fly formatting. Chordie does not index songs against artists'/composers' will. To remove this song please click here.

Text color:
Chord color:
Chord grids: 
Font size:    
Page size: 

A B C#m E
Rate #1 of 5 versions

Jango Player

Login - add to songbook

SHARE PAGE  



You need to log in to post comments