Guitar Tabs, Chords and Lyrics
Server problems seems to be fixed. Chordie has been experiencing problems with songs disappearing. These issues now seems to be fixed, but still verifying the fix. If you find anything strange, please email admin@chordie.com.


Honest  Kodaline

[Dmadd9] [Fmaj7] [Dmadd9] [Am]  
 
 e|------0-----------0--------------0----------0-----------------------------|
 B|------3-----------1--------------3----------1-----------------------------|
 G|------2-----------2--------------2----------2-----------------------------|
 D|------3-----------3--------------3----------2-----------------------------|
 A|------x-----------3--------------x----------0-----------------------------|
 E|------x-----------x--------------x----------x-----------------------------|

When you‚??re playing Dmadd9, if you fret the B string at the 3rd fret with your little
finger but also keep your
first finger down at the 1st fret, on the same string, at the same time, it makes the
move to Fmaj7 a doddle.
As an alternative, I‚??ve been experimenting with playing the intro with Asus4 instead
of the repeat of Dmadd9, so
it looks like this :-
[Dmadd9] [Fmaj7] [Asus4] [Am]  
 
 e|------0-----------0--------------0----------0-----------------------------|
 B|------3-----------1--------------3----------1-----------------------------|
 G|------2-----------2--------------2----------2-----------------------------|
 D|------3-----------3--------------2----------2-----------------------------|
 A|------x-----------3--------------0----------0-----------------------------|
 E|------x-----------x--------------x----------x-----------------------------|

Again, play the B string at the 3rd fret with your little finger but also keep your
first finger down at the 1st
fret for a super smooth change to Am.
I‚??ll put the chords up over the full song below the way I play it, as to my ear,
there‚??s also an additional couple
of chords further on.
Hope this helps someone.
Intro
[Dmadd9] [Fmaj7] [Dmadd9] [Am]  
Verse 1
[Dmadd9]We don‚?[Fmaj7]?t communi[Dmadd9]cate can you [Fmaj7]not say what‚??s on y[Dmadd9]our mind[Am] [Dmadd9] [Am]
[Dmadd9]And I se[Fmaj7]e it every[Dmadd9] day you hide[Fmaj7] the truth behind you[Dmadd9]r eyes[Am] [Cadd9] [C]
[G]Honestly, there‚??s no need fo[Am]r you to hide[Cadd9] [C]
[G]Talk to me, can‚??t you see, I‚[Am]??m on your sid[Cadd9]e.[C]
Bridge
[Cmaj7]Honest [F] [G]Hones[AM]t
Chorus
[Am]Say what it [F]is you‚??re tryin‚??[G] to say
But if you lie to me [Am]again
I'll be the [F]one that walks [G]away
Is it in you to be [Am]hones[F]t, [G]honest
[G]Is [C]it [C]in [C]you [C]to [C]be [Cmaj7]hon....[F]est
Verse 2
[Dmadd9]I still rem[Fmaj7]ember the day we met I was [Dmadd9]hanging on yo[Fmaj7]ur every word[Dmadd9] [Am] [Dmadd9] [Am]
[Dmadd9]I didn't thi[Fmaj7]nk I would ever [Dmadd9]let somebody [Fmaj7]see into my world[Dmadd9] [Am] [Cadd9] [C]
[G]Honestly, can‚??t you see, I‚[Am]??m on your si[Cadd9]de[C]
Chorus
[Am]Say what it is[F] you‚??re tryin‚??[G] to say
But if you lie to me a[Am]gain
I'll be the [F]one that‚??s walking[G] away
Is it in you to be [Am]hones[F]t, [G]honest
[G]Is [C]it [C]in [C]you [C]to [C]be [Cmaj7]hon....[F]est
Middle 8
[F]Is it all in my head or was it something I [Am]said
Because I‚??m tryin‚?? to forgive, and now I‚??m tryi[F]n‚?? to forget
You‚??re telling me all of this, no more hearing o[Am]f it
It was all just a lie, was it all just a [F]lie
Now I‚??m walking away ‚??cos everything that [Am]you say
All that you ever tell to me is [G]lies, lies
Bridge
[Cmaj7]Honest [F] [G]Hones[AM]t [G]Is [C]it [C]in [C]you [C]to [C]be [Cmaj7]hon....[F]est
Chorus
[Am]Say what it [F]is you're tryin‚?? t[G]o say
But if you lie to me [Am]again
I'll be the [F]one that walks [G]away
Is it in you to be [Am]hones[F]t, [G]honest
[G]Is [C]it [C]in [C]you [C]to [C]be [Cmaj7]hon....[F]est
[G]Is [C]it [C]in [C]you [C]to [C]be [Cmaj7]hon....[F]est
Chords :-
Dmadd9 Fmaj7 Am Cadd9 C G Cmaj7 F (barre or thumb)
 
 e|------0--------0-------0------3-----0-----3-----0-----1---------------|
 B|------3--------1-------1------3-----1-----3-----1-----1---------------|
 G|------2--------2-------2------0-----0-----0-----0-----2---------------|
 D|------3--------3-------2------2-----2-----0-----2-----3---------------|
 A|------x--------3-------0------3-----3-----2-----2-----3---------------|
 E|------x--------x-------x------x-----x-----3-----0-----1---------------|


Important: The song above is NOT stored on the Chordie server. The original song is hosted at www.azchords.com. Chordie works as a search engine and provides on-the-fly formatting. Chordie does not index songs against artists'/composers' will. To remove this song please click here.

Text color:
Chord color:
Chord grids: 
Font size:    
Page size: 

Am Am Asus4 C Cadd9 Cmaj7 Dmadd9 F Fmaj7 G
Rate #1 of 3 versions

Jango Player

Login - add to songbook

SHARE PAGE  




You need to log in to post comments