Guitar Tabs, Chords and Lyrics
Major upgrade!! After one year development the new version of Chordie is now online! Please give feedback.


Embrace   Korn

 
 |-----------------|
 |-----------------|
 |-----------------|
 |-----------------|
 |------4-------5--|
 |-----------------|
 |--0-3----0-3-----| <--x8

 


 [-] [-] [+] [-] [-] [+]  


 (Bridge) - Heave distortion:


 

 
 |--------------|
 |--------------|
 |--------------|
 |--------------|
 |--------------|
 |-3-2--2--3-2--|
 |-1-0--0--1-0--| <--Play as many times as needed

 


 


 (Verse):


 

 
 |--------------|
 |--------------|
 |--------------|
 |--------------|
 |--------------|
 |-2-2--2--2-2--|
 |-0-0--0--0-0--| <--Play as many time as needed

 


 


 (CBridge):


 

 
 |------------------|
 |------------------|
 |------------------|
 |------------------|
 |--5h6p5-5h6p5-----|
 |----------------2-|
 |-3-----------3-4--|
 |-------------------|
 |-------------------|
 |-------------------|
 |-------------------|
 |--5h6p5-5h6p5------|
 |-------------------|
 |-3-----------3-6-4-|
 |------------------|
 |------------------|
 |------------------|
 |------------------|
 |--5h6p5-5h6p5-----|
 |----------------2-|
 |-3-----------3-4--|
 |-----------------|
 |-----------------|
 |-----------------|
 |-----------------|
 |--5h6p5-5h6p5--6-|
 |--------------5--|
 |-3-----------3---|

 


 


 (Chorus):


 


 

 
 |-----------------------|
 |-----------------------|
 |-----------------------|
 |-----------------------|
 |-10--9--8--7/8\7-------|
 |-8---7--6--5/6\5--8--7-|
 |------------------6--5-|


Important: The song above is NOT stored on the Chordie server. The original song is hosted at www.azchords.com. Chordie works as a search engine and provides on-the-fly formatting. Chordie does not index songs against artists'/composers' will. To remove this song please click here.

This song is displayed as text-only. Transposing and tuning is only available for chordpro-songs.
Rate #1 of 3 versions

Jango Player

Login - add to songbook

SHARE PAGE  



You need to log in to post comments