Guitar Tabs, Chords and Lyrics
Major upgrade!! After one year development the new version of Chordie is now online! Please give feedback.


Insane   Korn

 
 D -----------------------------------|-------------------------------------
 A -----------------------------------|-------------------------------------
 F -----------------------------------|-------------------------------------
 C -----------------------------------|-------------------------------------
 G ---12-12-12-12-11-11-11-12-12-12---|-------------------------------------
 D ---14-14-14-14-14-14-14-14-14-14---|---12-12-12-12sb-12sb-12sb-12sb-12b~-
 A -----------------------------------|---14-14-14-14sb-14sb-14sb-14sb-14b~-

 


 PLAY 16 TIMES PLAY 16 TIMES


 


 

 
 D -------------------------------------------------------------------------
 A -------------------------------------------------------------------------
 F -------------------------------------------------------------------------
 C -------------------------------------------------------------------------
 G -------------------------------------------------------------------------
 D ---3---7\4---3---7\4---3---7\4---3---7\4---------7\6---------------------
 A -0-1-0-5\2-0-1-0-5\2-0-1-0-5\2-0-1-0-5\2-0-2-1-0-5\4---------------------

 


 


 [VERSE] 


 (I ONLY GOT THE RHYTHM GUITAR FOR THE VERSE)


 


 

 
 D -------------------------------------------------------------------------
 A -------------------------------------------------------------------------
 F -------------------------------------------------------------------------
 C -------------------------------------------------------------------------
 G -------------------------------------------------------------------------
 D -3-2-~~~-------2-3-7-6-~~~---------3-2-~~~-------2-3-7-6-~~~-------------
 A -1-0-~~~-------0-1-5-4-~~~---------1-0-~~~-------0-1-5-4-~~~-------------

 


 


 [CBORUS] 


 


 

 
 D -----------------------------------|-------------------------------------
 A -----------------------------------|-------------------------------------
 F -----------------------------------|-------------------------------------
 C -----------------------------------|-------------------------------------
 G ---12-12-12-12-12-12-12-12---------|-------------------------------------
 D ---14-14-14-14-14-14-14-14---------|----12-12-12-12-12-12-12-12----------
 A -----------------------------------|----14-14-14-14-14-14-14-14----------

 


 PLAY 16 TIMES PLAY 16 TIMES


 


 

 
 D -----------------------------------|-------------------------------------
 A -----------------------------------|-------------------------------------
 F -----------------------------------|-------------------------------------
 C -----------------------------------|-------------------------------------
 G ---9--9--9--9--9--9--9--9--9--9----|12-12-12-12\11-11-11-11/12-12-12-12--
 D ---10-10-10-10-10-10-10-10-10-10---|X--X--X--X-\X--X--X--X-/X--X--X--X---
 A -----------------------------------|10-10-10-10\9--9--9--9-/10-10-10-10--

 


 PLAY 16 TIMES PLAY 16 TIMES


 


 

 
 D -----------------------------------|-------------------------------------
 A -----------------------------------|-------------------------------------
 F -----------------------------------|-------------------------------------
 C -----------------------------------|-------------------------------------
 G ---12-12-12-12-11-11-11-12-12-12---|-------------------------------------
 D ---14-14-14-14-14-14-14-14-14-14---|---12-12-12-12-12-12-12-12-----------
 A -----------------------------------|---14-14-14-14-14-14-14-14-----------

 


 PLAY 16 TIMES PLAY 16 TIMES


 


 

 
 D -----------------------------------|-------------------------------------
 A -----------------------------------|-------------------------------------
 F -----------------------------------|-------------------------------------
 C -----------------------------------|-------------------------------------
 G ---9--9--9--9--9--9--9--9--9--9----|12-12-12-12\11-11-11-11/12-12-12-12--
 D ---10-10-10-10-10-10-10-10-10-10---|X--X--X--X-\X--X--X--X-/X--X--X--X---
 A -----------------------------------|10-10-10-10\9--9--9--9-/10-10-10-10--

 


 PLAY 16 TIMES PLAY 16 TIMES


 


 

 
 D -------------------------------------------------------------------------
 A -------------------------------------------------------------------------
 F -------------------------------------------------------------------------
 C -------------------------------------------------------------------------
 G -------------------------------------------------------------------------
 D ---3---7\4----3---7\4----3---7\4----3---7\4----------7\6-----------------
 A -0-1-0-5\2--0-1-0-5\2--0-1-0-5\2--0-1-0-5\2--0-2-1-0-5\4-----------------

 


 


 


 PLAY VERSE AGAIN


 


 PLAY CHORUS AGAIN


 


 [BREAK] 


 (LISTEN TO TRACK FOR ARRANGEMENT)


 


 

 
 D -------------------------------------------------------------------------
 A -------------------------------------------------------------------------
 F -------------------------------------------------------------------------
 C -------12--12-12----------14--14-14---------11--11-11---------9---8-8----
 G -------X---X--X-----------X---X--X----------X---X--X----------X---X-X----
 D -7-7---10--10-10----6-6---12--12-12---3-3---9---9--9----2-2---7---6-6----
 A -5-5----------------4-4---------------1-1---------------0-0--------------

 


 


 [ENDING 2] 


 


 

 
 D -------------------------------------------------------------------------
 A -------------------------------------------------------------------------
 F -------------------------------------------------------------------------
 C -------12--12-12----------14--14-14---------12--12-12--------------------
 G -------X---X--X-----------X---X--X----------X---X--X---------------------
 D -7-7---10--10-10----6-6---12--12-12---3-3---10--10-10---12-6-------------
 A -5-5----------------4-4---------------1-1---------------10-4-------------

 


 


 [ENDING 3] 


 


 

 
 D -------------------------------------------------------------------------
 A -------------------------------------------------------------------------
 F -------------------------------------------------------------------------
 C -------12--12-12----------14--14-14-----------12-12-12-14-14-14----------
 G -------X---X--X-----------X---X--X------------X--X--X--X--X--X-----------
 D -7-7---10--10-10----6-6---12--12-12---10-10---10-10-10-12-12-12----------
 A -5-5----------------4-4---------------8--8-------------------------------

 


 


 


 [PRE CBORUS] 


 


 

 
 D -------------------------------------------------------------------------
 A -------------------------------------------------------------------------
 F -------------------------------------------------------------------------
 C -------------------------------------------------------------------------
 G -------------------------------------------------------------------------
 D ------------6--------------6--------------6--------------8---------------
 A -5-4-6-4-7--4---5-4-6-4-7--4---5-4-6-4-7--4---5-4-6-4-9--6---------------
 D -------------------------------------------------------------------------
 A -------------------------------------------------------------------------
 F -------------------------------------------------------------------------
 C -------------------------------------------------------------------------
 G -------------------------------------------------------------------------
 D ------------6--------------6--------------6--------------8---------------
 A -5-4-6-4-7--4---5-4-6-4-7--4---5-4-6-4-7--4---5-4-6-4-7--6---------------
 D -------------------------------------------------------------------------
 A -------------------------------------------------------------------------
 F -------------------------------------------------------------------------
 C -------------------------------------------------------------------------
 G -------------------------------------------------------------------------
 D ------------6--------------6--------------6--------------8---------------
 A -5-4-6-4-7--4---5-4-6-4-7--4---5-4-6-4-7--4---5-4-6-4-8--6---------------


Important: The song above is NOT stored on the Chordie server. The original song is hosted at www.azchords.com. Chordie works as a search engine and provides on-the-fly formatting. Chordie does not index songs against artists'/composers' will. To remove this song please click here.

This song is displayed as text-only. Transposing and tuning is only available for chordpro-songs.
Rate #1 of 1 versions

Jango Player

Login - add to songbook

SHARE PAGE  



You need to log in to post comments