Guitar Tabs, Chords and Lyrics
Update 25:10. 13:00. Site is back up running again. Songbooks are recovered. Woring on getting search back up..


It's Gonna Go Away  Korn

Dif.: 4
NOTE: Tune down 1 whole step
Intro/Verse (Gtr. 1) (w/ dist. + feedback)
 
 d|--1h2----------------|-------------------|
 F|---------------------|---4p3-------------|

Verse (Gtr. 2) (w/ dist.) (‚??I don‚??t want it...‚??)
 
 G|-------1h2--4-/7---|------6p4-2---4------|----------------------|
 D|---2---------------|------------------4^-|---------2p0----------|

^ full step
Verse (Gtr. 2) (cont.)
 
 G|-------1h2--4-/7---|------6p4-2-----4-----|----------------------|
 D|---2---------------|-------------------5^-|---------------2p0----|

^ full step
Verse (Gtr. 2) (cont.)
 
 G|------1h2--4/11--|-----9p7-6-----------|----------|-------------|
 D|-2---------------|--------------9--7^--|----------|--5^--4^-----|

^ full step ^----^ full step
Verse (Gtr. 2) (cont.)
 
 G|------1h2--4/11--|-----9p7-6-----------|----------|
 D|-2---------------|--------------9--7^--|----------|

Outro (Gtr. 1) (‚??Go a --- way!..‚??)
 
 d|--------------------|-------------------2--------2------|

Outro (Gtr. 2)
 
 D|--5^---------4^---|-0----------2----------------------|

Song Structre: -
[Fa]Int[Fa]ro [Fa](Gt[Fa]r. [Fa]1)[-] [Bass]
Verse (Gtr. 1)/Verse (Gtr. 2)
Outro (Gtr. 1)/Outro (Gtr. 3)

Important: The song above is NOT stored on the Chordie server. The original song is hosted at www.azchords.com. Chordie works as a search engine and provides on-the-fly formatting. Chordie does not index songs against artists'/composers' will. To remove this song please click here.

Text color:
Chord color:
Chord grids: 
Font size:    
Page size: 

Fa
Rate #1 of 1 versions

Login - add to songbook

SHARE PAGE  




You need to log in to post comments