Guitar Tabs, Chords and Lyrics
Server problems seems to be fixed. Chordie has been experiencing problems with songs disappearing. These issues now seems to be fixed, but still verifying the fix. If you find anything strange, please email admin@chordie.com.


Funnyman  KT Tunstall

 
 -------------------------------------------------------------------------------

Funnyman - KT Tunstal
 
 -------------------------------------------------------------------------------

Tuning: Capo on 3rd fret.
"A minor chord. Strum this tab, you have to listen to the music to get it right."
 
 e|---------------------------------------------------------------------------------|
 B|--1---------1----------1----------1----------------------------------------------|
 G|--2---------2----------2----------2----------------------------------------------|
 D|--2---------2----------2----------2----------------------------------------------|
 A|----------------------------------3----------------------------------------------|
 E|------------3--------------------------------------------------------------------|

[Am]Locked inside your[F] head
Do you realize the[Dm] things you said[G]
Never made sens[Am]e?
We can sit here and lau[F]gh
But we don't know the ha[Dm]lf of it,[G]
In your defe[Am]nse
We've been talking a whi[F]le
And it seems to me each[Dm] time you smile[G]
Lights are coming on[Am]
But they don't burn too stro[F]ng
And they won't stay for long[Dm]
And[G] then they're gone again
[F]Funnyman, gotta try to be som[C]ething wonderfu[G]l
[F]Funnyman, listening to the wo[C]rld turning on [G]its sail
[F]Turn it into a br[C]and new univ[G]erse
[F]Funnyman could never be[C] anything el[G]se.
[Am]Do you remember that night[F]
When I had to play your ang[Dm]el
Sa[G]ving your so[Am]ul?
Even though you were holding on tigh[F]t
A part of you was tak[Dm]en by the demons below[G]
[C]When no one to lose
[G]Said you feel like a bruise
[Am]On a beautiful bo[E]dy.
[C]And all the damage you do
[G]Is so honest and true
[Am]I don't want to feel sorr[E]y for you
[F]Funnyman, gotta try to be[C] something wond[G]erful
[F]Funnyman, listening to the w[C]orld turning[G] on its sail
[F]Turn it into a b[C]rand new un[G]iverse
[F]Funnyman could never b[C]e anything[G] else.
[Dm] Ah,[Am] ah, oo[G]h
[Dm] Ah,[Am] ah, oo[G]h
[Dm] Ah,[Am] ah, oo[G]h
[Dm] [Am] [G] [Am]  

Important: The song above is NOT stored on the Chordie server. The original song is hosted at www.azchords.com. Chordie works as a search engine and provides on-the-fly formatting. Chordie does not index songs against artists'/composers' will. To remove this song please click here.

Text color:
Chord color:
Chord grids: 
Font size:    
Page size: 

Am C Dm E F G
Rate #1 of 5 versions

Jango Player

Login - add to songbook

SHARE PAGE  



You need to log in to post comments