Guitar Tabs, Chords and Lyrics
Server problems seems to be fixed. Chordie has been experiencing problems with songs disappearing. These issues now seems to be fixed, but still verifying the fix. If you find anything strange, please email admin@chordie.com.


Girl and the Ghost  KT Tunstall

4th Nov 2012
Tuning:Standard
CAPO: 1st fret (sounds in key of Bbm)
*****************************************************************************
[Am] [F] [Am] [F] [E]  
 
 e|--------------0-----------------|-------------0-------------------|
 B|------1-p0--3-----1-----1-p0----|-----1-p0--3-----1-----1-p0------|
 G|---------------------2-------0--|--------------------2--------2---|
 D|--------------------------------|---------------------------------|
 A|--------------------------------|---------------------------------|
 E|--------------------------------|---------------------------------|

[Am] [F] [Em] [G] [E7/G#]  
 
 e|--------------0-----------------|---------------------------------|
 B|------1-p0--3-----1-----1-p0----|---------------------------------|
 G|---------------------2-------0--|--0------------(0)-----(1)-------|
 D|--------------------------------|---------------------------------|
 A|--------------------------------|---------------------------------|
 E|--------------------------------|---------------------------------|

[Am] [F] [Am] [F] [E]  
 
 e|--------------0-----------------|-------------0-------------------|
 B|------1-p0--3-----1-----1-p0----|-----1-p0--3-----1-----1-p0------|
 G|--2------------------2-------0--|--------------------2--------2---|
 D|--------------------------------|---------------------------------|
 A|--------------------------------|---------------------------------|
 E|--------------------------------|---------------------------------|

[Am] [F] [Em] [G]  
 
 e|--------------0-----------------|---------------------------------|
 B|------1-p0--3-----1-----1-p0----|---------------------------------|
 G|--2------------------2-------0--|--0-------------(0)--------------|
 D|--------------------------------|---------------------------------|
 A|--------------------------------|---------------------------------|
 E|--------------------------------|---------------------------------|

The girl and the g[Am]host...[F] sit in the c[Am]orner,[F]
The girl a[E]nd the g[Am]host...[F] seem to have a [Em]lot to s[G]ay,
The g[E]irl and the g[Am]host..[F]. haven't seen each o[Am]ther in three ye[F]ars,
The g[E]irl and the g[Am]host..[F]. feel simple se[Em]conds slipped a - w[G]ay...
...[Am]ay, [F] [Am] [F] sli[E]pped a - [Am]way! [F] | [Em]/ / [G]/ / |
The ghost and the g[A]irl, com[A7]monly con - ne[D]cted by s[G7]ome - thing bi[F]gger,
^ ^ ^
[A] A phe - no[A7]menon that s[D]ets off the e - [G7]ter - nal tri[F]gger,
^ ^ ^
[A] And [A7]lets the light through that us[D]ually g[G]oes..[F]. a - ro[Em]und, and a - ro[G]und,
And a - r[Am]ound! [F] | [Am] / / [F]/ [E]/ | [Am]/ / [F]/ / | [Em]/ / [G]/ / |
The girl and the g[Am]host...[F] meet in the c[Am]orner,[F]
The girl a[E]nd the g[Am]host...[F] they touch fingers, and w[Em]alk right thr[G]ough,
The g[E]irl and the g[Am]host...[F] feel so fam - i[Am]liar and fea[F]rless,
The g[E]irl and the g[Am]host...[F] know each other like o[Em]ther people [G]do,
Woh - [Am]oh, ot[F]her people [Am]do, ot[F]her pe[E]ople [Am]do!! [F] | [Em]/ / [G]/ / |
The ghost and the g[A]irl, com[A7]monly con - ne[D]cted by s[G7]ome - thing bi[F]gger,
^ ^ ^
[A] A phe - no[A7]menon that s[D]ets off the e - [G7]ter - nal tri[F]gger,
^ ^ ^
[A] And l[A7]ets the light through that usu[D]ally go[G]es... [F]
...And the g[A]irl, com[A7]monly con - ne[D]cted by, well... a - s[G7]ome - thing bi[F]gger,
^ ^ ^
[A] A phe - no[A7]menon that s[D]ets off the e - [G7]ter - nal tri[F]gger,
^ ^ ^
[A] And l[A7]ets the light through that us[D]ually g[G]oes...[F]
A - ro[E]und, then a - ro[F]und, then a - ro[G]und, usu[F]ally goes a - ro[E]und,
And a - ro[F]und, then a - ro[G]und, usu[F]ally goes a - ro[E]und!
(It goes around, [F] it goes around, [G] it goes around, it usu[F]ally goes a - ro[E]und!)
(It goes around, [F] it goes around, [G] it goes around, it usu[F]ally goes a - ro[E]und!)
Yeah, usually goes a - round,
(It goes around, [F] it goes around, [G] it goes around, it usu[F]ally goes a - ro[E]und!)
And a - round, and a - round! Woh, it usually goes a - round!
(It goes around, [F] it goes around, [G] it goes around, it usu[F]ally goes a - ro[E]und!)
And a - round, and a - round! Woh, it usually goes a - round!
(It goes around, [F] it goes around, [G] it goes around, it usu[F]ally goes a - ro[E]und!)
And a - round, and a - round! Yeah, it usually goes a - round!
| [F]/ / / / | [G]/ / / / | [E7/G#] / / [Am9] / / ||
^ ^ ^
*****************************************************************************
^ = accent the beat
Am = 022100 A = x02220
F = 133211 A7 = x02020
E = 022100 D = xx0232
Em = 022000 G7 = 320001
G = 320033 E7/G# = 4xx450 or 022130 (without G# bass note)
Am9 = x07500 or x02200
| / slide up
| \ slide down
| h hammer-on
| p pull-off
| ~ vibrato
| + harmonic
| x Mute note

Important: The song above is NOT stored on the Chordie server. The original song is hosted at www.azchords.com. Chordie works as a search engine and provides on-the-fly formatting. Chordie does not index songs against artists'/composers' will. To remove this song please click here.

Text color:
Chord color:
Chord grids: 
Font size:    
Page size: 

A A7 Am Am9 D E E7/G# Em F G G7
Rate #1 of 3 versions

Login - add to songbook

SHARE PAGE  




You need to log in to post comments