Guitar Tabs, Chords and Lyrics
Server problems seems to be fixed. Chordie has been experiencing problems with songs disappearing. These issues now seems to be fixed, but still verifying the fix. If you find anything strange, please email admin@chordie.com.


Lost Highway  Kurt Nilsen

Standard tuning
[C] [Fadd9] [Am]  
 
 |-------0----------3----------0-------|
 |-------1----------1----------1-------|
 |-------0----------0----------2-------|
 |-------2----------3----------2-------|
 |-------3---------------------0-------|
 |-------------------------------------|

[G(5)] [C(5)] [G(5)add6/B]  
 
 |-------3----------3----------0-------|
 |-------3----------0----------3-------|
 |-------0----------0----------0-------|
 |-------0----------2----------0-------|
 |-------2----------3----------2-------|
 |-------3-----------------------------|

* I have placed a '*' above the tabs certain places
where there are small details that are important
to notice.
Intro
[C] [Fadd9]  
 
 ||--------------0-----------------------3-----------||
 ||--------1-----------1-----------1-----------1-----||
 ||-----0-----0-----0-----0-----0-----0-----0-----0--||
 ||--------------------------3-----------------------|| x 2
 ||--3-----------------------------------------------||
 ||--------------------------------------------------||

1st verse
"Stone, all alone..."
[C] [Fadd9]  
 
 |--------------0-----------------------3-----------|
 |--------1-----------1-----------1-----------1-----|
 |-----0-----0-----0-----0-----0-----0-----0-----0--|
 |--------------------------3-----------------------|
 |--3-----------------------------------------------|
 |--------------------------------------------------|

"For a life.."
[C] [C]  
 
 |--------------0-----------------------0-----------|
 |--------1-----------1-----------1-----------1-----|
 |-----0-----0-----0-----0-----0-----0-----0-----0--|
 |--------------------------------------------------|
 |--3-----------------------3-----------------------|
 |--------------------------------------------------|

"I have paid...
C Am *
 
 |--------------0-----------------------0-----------|
 |--------1-----------1-----------1-----------1-----|
 |-----0-----0-----0-----0-----2-----2-----2-----0--|
 |--------------------------------------------------|
 |--3-----------------------0-----------------------|
 |--------------------------------------------------|

"When I..."
[G(5)] [G(5)]  
 
 |--------------------------------------------------|
 |--------------3-----------------------3-----------|
 |--------0-----------0-----------0-----------0-----|
 |-----0-----0-----0-----0-----0-----0-----0-----0--|
 |--------------------------------------------------|
 |--3-----------------------3-----------------------|

"All the people..."
[Fadd9] [Fadd9]  
 
 |--------------3-----------------------3-----------|
 |--------1-----------1-----------1-----------1-----|
 |-----0-----0-----0-----0-----0-----0-----0-----0--|
 |--3-----------------------3-----------------------|
 |--------------------------------------------------|
 |--------------------------------------------------|

"Just another..."
[C] [C]  
 
 |--------------0-----------------------1-----------|
 |--------1-----------1-----------1-----------1-----|
 |-----0-----0-----0-----0-----0-----0-----0-----0--|
 |--------------------------------------------------|
 |--3-----------------------3-----------------------|
 |--------------------------------------------------|

"lost highway..."
[C] [G(5)]  
 
 |--------------0-----------------------------------|
 |--------1-----------1-----------------3-----------|
 |-----0-----0-----0-----0--------0-----------0-----|
 |-----------------------------0-----0-----0-----0--|
 |--3-----------------------------------------------|
 |--------------------------3-----------------------|

2nd verse
"Just a deck..."
[C] [C]  
 
 |--------------0-----------------------0-----------|
 |--------1-----------1-----------1-----------1-----|
 |-----0-----0-----0-----0-----0-----0-----0-----0--|
 |--------------------------------------------------|
 |--3-----------------------3-----------------------|
 |--------------------------------------------------|

"and a jug of wine..."
[C] [Fadd9]  
 
 |--------------0-----------------------3-----------|
 |--------1-----------1-----------1-----------1-----|
 |-----0-----0-----0-----0-----0-----0-----0-----0--|
 |--------------------------3-----------------------|
 |--3-----------------------------------------------|
 |--------------------------------------------------|

"And a womans..."
[C] [C]  
 
 |--------------0-----------------------0-----------|
 |--------1-----------1-----------1-----------1-----|
 |-----0-----0-----0-----0-----0-----0-----0-----0--|
 |--------------------------------------------------|
 |--3-----------------------3-----------------------|
 |--------------------------------------------------|

"Makes a life..."
C Am *
 
 |--------------0-----------------------0-----------|
 |--------1-----------1-----------1-----------1-----|
 |-----0-----0-----0-----0-----2-----2-----2-----0--|
 |--------------------------------------------------|
 |--3-----------------------0-----------------------|
 |--------------------------------------------------|

"like mine..." "On the day..."
[G(5)] [G(5)]  
 
 |--------------------------------------------------|
 |--------------3-----------------------3-----------|
 |--------0-----------0-----------0-----------0-----|
 |-----0-----0-----0-----0-----0-----0-----0-----0--|
 |--------------------------------------------------|
 |--3-----------------------3-----------------------|

[Fadd9] [Fadd9]  
 
 |--------------3-----------------------3-----------|
 |--------1-----------1-----------1-----------1-----|
 |-----0-----0-----0-----0-----0-----0-----0-----0--|
 |--3-----------------------3-----------------------|
 |--------------------------------------------------|
 |--------------------------------------------------|

"Went astray..."
C (Bass-run) Am *
 
 |--------------------------------------0-----------|
 |--------1-----------1-----------1-----------1-----|
 |-----0-----0-----0-----0-----2-----1-----2-----0--|
 |--------------------------------------------------|
 |--3-----------2-----------0-----------------------|
 |--------------------------------------------------|

[C] [G(5)] [Fadd9]  
 
 |--------------0-----------------------------------|
 |--------1-----------1-----------------------1-----|
 |-----0-----0-----0-----0--------0--------0-----0--|
 |-----------------------------0-----0--3-----------|
 |--3-----------------------------------------------|
 |--------------------------3-----------------------|

3rd verse
"I was just..."
[C(5)] [C(5)]  
 
 |--------------3-----------------------3-----------|
 |--------1-----------1-----------1-----------1-----|
 |-----0-----0-----0-----0-----0-----0-----0-----0--|
 |--------------------------------------------------|
 |--3-----------------------3-----------------------|
 |--------------------------------------------------|

"Nearly..."
[C] [Fadd9]  
 
 |--------------0-----------------------3-----------|
 |--------1-----------1-----------1-----------1-----|
 |-----0-----0-----0-----0-----0-----0-----0-----0--|
 |--------------------------3-----------------------|
 |--3-----------------------------------------------|
 |--------------------------------------------------|

"Neither..."
[C] [C]  
 
 |--------------0-----------------------0-----------|
 |--------1-----------1-----------1-----------1-----|
 |-----0-----0-----0-----0-----0-----0-----0-----0--|
 |--------------------------------------------------|
 |--3-----------------------3-----------------------|
 |--------------------------------------------------|

"Just a kid..."
C (Bass-run) Am *
 
 |--------------------------------------0-----------|
 |--------1-----------1-----------1-----------1-----|
 |-----0-----0-----0-----0-----2-----1-----2-----0--|
 |--------------------------------------------------|
 |--3-----------2-----------0-----------------------|
 |--------------------------------------------------|

"And now..."
[G(5)] [G(5)]  
 
 |--------------------------------------------------|
 |--------------3-----------------------3-----------|
 |--------0-----------0-----------0-----------0-----|
 |-----0-----0-----0-----0-----0-----0-----0-----0--|
 |--------------------------------------------------|
 |--3-----------------------3-----------------------|

"Too late..."
[Fadd9] [Fadd9]  
 
 |--------------3-----------------------3-----------|
 |--------1-----------1-----------1-----------1-----|
 |-----0-----0-----0-----0-----0-----0-----0-----0--|
 |--3-----------------------3-----------------------|
 |--------------------------------------------------|
 |--------------------------------------------------|

"Started..."
C (Bass-run) Am *
 
 |--------------------------------------0-----------|
 |--------1-----------1-----------1-----------1-----|
 |-----0-----0-----0-----0-----2-----1-----2-----0--|
 |--------------------------------------------------|
 |--3-----------2-----------0-----------------------|
 |--------------------------------------------------|

"That lost highway..."
[C] [G(5)] [Fadd9]  
 
 |--------------0-----------------------------------|
 |--------1-----------1-----------------------1-----|
 |-----0-----0-----0-----0--------0--------0-----0--|
 |-----------------------------0-----0--3-----------|
 |--3-----------------------------------------------|
 |--------------------------3-----------------------|

Interlude
[C]  
 
 |--------------0-----------------------------------|
 |--------1-----------1-----------1-----------1-----|
 |-----0-----0-----0-----0-----0-----0-----0-----0--|
 |--------------------------------------------------|
 |--3-----------------------3-----------2-----------|
 |--------------------------------------------------|

Am * Fadd9
 
 |--------------0-----------------------3-----------|
 |--------1-----------1-----------1-----------1-----|
 |-----2-----2-----2-----0-----0-----0-----0-----0--|
 |--------------------------3-----------------------|
 |--0-----------------------------------------------|
 |--------------------------------------------------|

[C] [G(5)add6/B]  
 
 |--------------0-----------------------0-----------|
 |--------1-----------1-----------3-----------3-----|
 |-----0-----0-----0-----0-----0-----0-----0-----0--|
 |--------------------------------------------------|
 |--3-----------------------2-----------------------|
 |--------------------------------------------------|

Am * Fadd9
 
 ||--------------0-----------------------3-----------|
 ||--------1-----------1-----------1-----------1-----|
 ||-----2-----2-----2-----0-----0-----0-----0-----0--|
 ||--------------------------3-----------------------|
 ||--0-----------------------------------------------|
 ||--------------------------------------------------|

[C] [G(5)add6/B]  
 
 |--------------0-----------------------0-----------||
 |--------1-----------1-----------3-----------3-----||
 |-----0-----0-----0-----0-----0-----0-----0-----0--||
 |--------------------------------------------------|| x 2
 |--3-----------------------2-----------------------||
 |--------------------------------------------------||

4th verse
"Now boys don't..."
[G(5)add6/B] [C]  
 
 |--------------0-----------------------0-----------|
 |--------3-----------3-----------1-----------1-----|
 |-----0-----0-----0-----0-----0-----0-----0-----0--|
 |--------------------------------------------------|
 |--2-----------------------3-----------------------|
 |--------------------------------------------------|

"You're ramblin..."
[Fadd9] [C]  
 
 |--------------3-----------------------0-----------|
 |--------1-----------1-----------1-----------1-----|
 |-----0-----0-----0-----0-----0-----0-----0-----0--|
 |--3-----------------------------------------------|
 |--------------------------3-----------------------|
 |--------------------------------------------------|

"On a road..."
[C] [C]  
 
 |--------------0-----------------------0-----------|
 |--------1-----------1-----------1-----------1-----|
 |-----0-----0-----0-----0-----0-----0-----0-----0--|
 |--------------------------------------------------|
 |--3-----------------------3-----------------------|
 |--------------------------------------------------|

"Are you..."
[Am] [G(5)]  
 
 |--------------0-----------------------------------|
 |--------1-----------1-----------------3-----------|
 |-----2-----2-----2-----2--------0-----------0-----|
 |-----------------------------0-----0-----0-----0--|
 |--0-----------------------------------------------|
 |--------------------------3-----------------------|

"Take my.."
[G(5)] [Fadd9]  
 
 |--------------------------------------3-----------|
 |--------------3-----------------1-----------1-----|
 |--------0-----------0--------0-----0-----0-----0--|
 |-----0-----0-----0-----0--3-----------------------|
 |--------------------------------------------------|
 |--3-----------------------------------------------|

"Or you..."
[Fadd9] [C]  
 
 |--------------3-----------------------------------|
 |--------1-----------1-----------1-----------1-----|
 |-----0-----0-----0-----0-----0-----0-----0-----0--|
 |--3-----------------------------------------------|
 |--------------------------3-----------2-----------|
 |--------------------------------------------------|

"I started..."
[Am] [C]  
 
 |--------------0-----------------------0-----------|
 |--------1-----------1-----------1-----------1-----|
 |-----2-----2-----2-----0-----0-----0-----0-----0--|
 |--------------------------------------------------|
 |--0-----------------------3-----------------------|
 |--------------------------------------------------|

"That lost..."
[G(5)] [Fadd9]  
 
 |--------------------------------------0-----------|
 |--------------------1-----------1-----------1-----|
 |--------0--------0-----0-----0-----0-----0-----0--|
 |-----0-----0--3-----------------------------------|
 |--------------------------3-----------------------|
 |--3-----------------------------------------------|

"Started rolling..."
[C] [C]  
 
 |--------------0-----------------------0-----------|
 |--------1-----------1-----------1-----------1-----|
 |-----0-----0-----0-----0-----0-----0-----0-----0--|
 |--------------------------------------------------|
 |--3-----------------------3-----------------------|
 |--------------------------------------------------|

"That lost..."
[G(5)]  
 
 |--------------------------------------------------|
 |--3-----------------------------------------------|
 |--0-----------------------------------------------|
 |--0-----------------------------------------------|
 |--------------------------------------------------|
 |--3-----------------------------------------------|

"way..."
[Fadd9] [Fadd9]  
 
 |--------------3-----------------------3-----------|
 |--------1-----------1-----------1-----------1-----|
 |-----0-----0-----0-----0-----0-----0-----0-----0--|
 |--3-----------------------3-----------------------|
 |--------------------------------------------------|
 |--------------------------------------------------|

[C(5)] [C(5)]  
 
 |--------------3-----------3--------|
 |--------1-----------1-----1--------|
 |-----0-----0-----0-----0--0--------|
 |--------------------------2--------|
 |--3-----------------------3--------|
 |-----------------------------------|


Important: The song above is NOT stored on the Chordie server. The original song is hosted at www.azchords.com. Chordie works as a search engine and provides on-the-fly formatting. Chordie does not index songs against artists'/composers' will. To remove this song please click here.

Text color:
Chord color:
Chord grids: 
Font size:    
Page size: 

Am C C(5) Fadd9 G(5)
Rate #1 of 7 versions

Jango Player

Login - add to songbook

SHARE PAGE  



You need to log in to post comments