Guitar Tabs, Chords and Lyrics
Server problems seems to be fixed. Chordie has been experiencing problems with songs disappearing. These issues now seems to be fixed, but still verifying the fix. If you find anything strange, please email admin@chordie.com.


Say That You Love Me  Kyla

Original Artist: Basil Valdez
I really love this song, that‚??s why I really worked hard to tab this one out.
I'm 97.96% sure that this is correct.
Intro: E-Ebm-C#m-
B-C#m-F#-E-;
[E-Ebm-C#m-F#]  
 
 e|--5----7-8-------7-8-------7-8---------5----7-8---------------|
 B|------------8---------6---------5-6-8-----------8---8/10‚??8-8--|
 G|--------------------------------------------------------------|
 D|--------------------------------------------------------------|
 A|--------------------------------------------------------------|
 E|--------------------------------------------------------------|

Verse I:(Diskarte nyo na ung plucking, madali naman hanapin.)
My m[B]orning starts to [Ebm]shine with tear drop[Abm]s in my eye
And h[E]ere I am al[C#]one starting to rea[F#]lize
That my d[Ebm]ays would be bri[Abm]ghter
If[Ebm] I could learn to hi[Abm]de
When [C#m]feelings that I have for you
Keep [F#]hurting me inside
Verse II:
[Eb]Then my day be[Gm]gins with simple th[Cm]ought of you
[Ab]Hoping our tom[F]orrows will be m[Bb]e and you
Sharing dr[Gm]eams with each o[Cm]ther and m[Gm]aking them come true[Cm]
[Fm]Holding one another saying all ‚??I need is[Bb] you.‚??
Chorus I:
But will you say t[Ebm]hat you love, and [Abm]show me [C#]that you care?[F#]
[B]Say when I need [C#]you; you will alway[F#]s be there[Bb]
But if you go[Ebm] and leave me[Abm]
[C#]This I swear is true[Eb]
Fm Ab Bb Eb (Intro)
My love will always be with you.
Verse III
Now my nights would end with just one wish that‚??s you
To hold me from the dark and help me make it through
‚??Cause the pain that inside me, would simply melt away
If I had you here with me and promise me you‚??d stay
(Repeat chorus)
Adlib: Pag hindi nyo Maxado marinig dito pakingan nyo na lng yung version ni Martin Nievera)
 
 e|-------------------------------------6-8-6-----6--8-9-10------|
 B|-------------------10--8-6-8---6-8-9--------------------------|
 G|---7------------10--------------------------7-----------------|
 D|------9--7--9-------------------------------------------------|
 A|--------------------------------------------------------------|
 E|--------------------------------------------------------------|

Chorus II:
But will you say t[Gm]hat you love, and [Cm]show m[F]e that you care?[Bb]
[Eb]Say when I need [F]you; you will alway[Bb]s be there[D]
But if you go[Gm] and [Cm]leave me
[F]This I swear is tr[G]ue
My[Am] love will always[C]
My[Am] love will always[C]
Am C D G (Intro)
My love will always be with you
~End~

Important: The song above is NOT stored on the Chordie server. The original song is hosted at www.azchords.com. Chordie works as a search engine and provides on-the-fly formatting. Chordie does not index songs against artists'/composers' will. To remove this song please click here.

Text color:
Chord color:
Chord grids: 
Font size:    
Page size: 

Ab Abm Am B Bb C C# C#m Cm D E Eb Ebm F F# Fm G Gm
Rate #1 of 1 versions

Login - add to songbook

SHARE PAGE  




You need to log in to post comments