Guitar Tabs, Chords and Lyrics
Update 25:10. 13:00. Site is back up running again. Songbooks are recovered. Woring on getting search back up..


Qui je suis  Kyo

Intro :
G Em Bm D x2
 
 |-3--------3--------3-------3--------2-------2-------2-------2------|
 |---3-1-0----3-1-0----3-1-0---3-1-0----3-1-0---3-1-0---3-1-0---3-1-0|
 |-------------------------------------------------------------------|
 |-------------------------------------------------------------------|
 |-------------------------------------------------------------------|
 |-------------------------------------------------------------------|

[G]Des milliers de bras tendus
Dans [Em]le vacarme de ma venue
[Bm]Mon Dieu qui je s[D]uis ?
[G]J'ai laissé ma solitude
Ma m[Em]aison est un véhicule
[Bm]Sur mon passage on jure on [D]crie
[Am]Je suis perdu jamais dans une [C]autre vie
[D]Je n'sais plus qui je s[G]uis
Je [D]tremble un [Bm]peu je [Em]prie
On m'ai[C]mait bien dans ma [Am]rue
On me [C]juge dans mon p[D]ays
Instru : G Em Bm D
[G]Tout en haut de l'édifice
Brill[Em]ant sous les lumières factices
Je n[Bm]'vois plus mon che[D]min
[G]Aujourd'hui j'ai tant d'amis
[Em] sont ceux qui m'ont vu grandir ?
[Bm]Je les ais vu part[D]ir
[Am]Je m'suis perdu jamais dans mon [C]avenir
J[D]e n'sais plus qui je s[G]uis
Je [D]tremble un [Bm]peu je [Em]prie
On m'ai[C]mait bien dans ma [Am]rue
On me [C]juge dans mon p[D]ays
Qui je s[G]uis ?
Je s[D]ors seulem[Bm]ent la [Em]nuit
Aujourd'[C]hui j'ai peur de [Am]vivre
Demain j'au[C]rai peur qu'on m'oub[D]lie
Tant [G]pis
Instru : G Bb D C G D C D x2
Je n'sais plus qui je [G]suis
Je [D]tremble un [Bm]peu je [Em]prie
On m'ai[C]mait bien dans ma [Am]rue
On me [C]juge dans mon p[D]ays
Qui je s[G]uis ?
Je s[D]ors seulem[Bm]ent la [Em]nuit
Aujourd'[C]hui j'ai peur de [Am]vivre
Demain j'au[C]rai peur qu'on m'oub[D]lie
Tant [G]pis
Outro :
G Em Bm D x2
 
 |-3--------3--------3-------3--------2-------2-------2-------2------|
 |---3-1-0----3-1-0----3-1-0---3-1-0----3-1-0---3-1-0---3-1-0---3-1-0|
 |-------------------------------------------------------------------|
 |-------------------------------------------------------------------|
 |-------------------------------------------------------------------|
 |-------------------------------------------------------------------|

G (let ring)

Important: The song above is NOT stored on the Chordie server. The original song is hosted at www.azchords.com. Chordie works as a search engine and provides on-the-fly formatting. Chordie does not index songs against artists'/composers' will. To remove this song please click here.

Text color:
Chord color:
Chord grids: 
Font size:    
Page size: 

Am Bm C D Em G
Rate #1 of 4 versions

Jango Player

Login - add to songbook

SHARE PAGE  



You need to log in to post comments