Guitar Tabs, Chords and Lyrics
Update 25:10. 13:00. Site is back up running again. Songbooks are recovered. Woring on getting search back up..


The Last Lost Continent   La Dispute

 
 e|-------------------------------------------------------------------------------|
 B|-------------------------------------------------------------------------------|
 G|-------------------------------------------------------------------------------|
 D|-----------12-10---------------12-10-------10-12-10-----------10-12-10---------|
 A|-----10-12---------------10-12----------------------12-10--------------12------|
 D|-12~--------------7/12~---------------5/8~-----------------8~-------------10/--|

 


 


 [2:33] 


 

 
 e|-----------------------------------------5-5-----5-5-----------|
 B|-6-66-66-66-66/8~--5-55-55-55-55/6~----------------------------|
 G|-------------------------------------7-7-----7-7-----7~--------|
 D|---------------------------------------------------------------|
 A|---------------------------------------------------------------|
 D|---------------------------------------------------------------|

 


 


 [3:42] 


 

 
 e|-----------------------------------------------------|---------|
 B|-----------------------------------------------------|-------3-|
 G|-----------------------------------------------------|-------2-|
 D|-0-0-0-0-0-0--0-0-0--0-0-0--0-0-0-0-0-0--0-0-0-0-0-0-|-------0-|
 A|-0-0-0-0-0-0--0-0-0--0-0-0--0-0-0-0-0-0--0-0-0-0-0-0-|-------0-|
 D|-0-0-0-0-0-0--0-8-10-8-7-5--3-3-3-3-3-3--3-3-3-3-2-2-|-------0-|

 


 [4:34] 


 

 
 e|-------------------------------------------------------------------------------------------|
 B|-------------------------------------------------------------------------------------------|
 G|---------2----------------------------------------------------------7----------------------|
 D|-----0-----0-------0-----0--------0-------0-------0------0------0-----0-------0-------0----|
 A|-------------------------------------------------------------------------------------------|
 D|-0-0---0-----0-/-3---3/5---5--/-8---8-8-8---8-\-7---7/10---10\8---8-----8-\-7---7-\-5---5\-|

 


 


 [6:16] 


 

 
 e|---------------------------------------------------|-----------|
 B|---------------------------------------------------|-----------|
 G|-------10------------------------------------------|-----------|
 D|-10/12----12-10----10------------------------------|---12~-----|
 A|----------------12----12-10\8----------------------|---12~-----|
 D|---------------------------------------------------|---12~-----|

 


 


 [6:57] 


 

 
 e|---------------------------------------------------------------|
 B|---------------------------------------------------------------|
 G|---------------------------------------------------------------|
 D|-12-12-12-12-12-12-12121212-8/10-10101010\8--------------------|
 A|-12-12-12-12-12-12-12121212-8/10-10101010\8--------------------|
 D|-12-12-12-12-12-12---------------------------------------------|

 


 


 [7:57] 


 

 
 e|---------------------------------------------------------------|
 B|---------------------------------------------------------------|
 G|---------------------------------------------------------------|
 D|-0-0-0-0-0-0-0-0-0-0-0-0-0-0-0-0-0-0-0-0-0-0-0-0-0-0-0-0-0-0-0-|
 A|---------------------------------------------------------------|
 D|---------------------------------------------------------------|

 


 


 [9:22] 


 

 
 e|-------------------------------------------------------------------|-----|
 B|-------------------------------------------------------------------|-----|
 G|-------------------------------------------------------------------|-----|
 D|-----3---2-------------------------------3---2---------------3333--|-12*-|
 A|-3-5---5---3-0-5-0-1-0-0-------------3-5---5---3-0-5-0-1-000-------|-12*-|
 D|---------------------------5-3-0-----------------------------------|-12*-|
 e|-------------------------------------------------------------------|-----------|
 B|-------------------------------------------------------------------|-----------|
 G|-------------------------------------------------------------------|-----------|
 D|-----3---2-------------------------------3---2---------------3333--|-x-0-0-0~--|
 A|-3-5---5---3-0-5-0-1-0-3-0-----------3-5---5---3-0-5-0-1-000-------|-x-0-0-0~--|
 D|---------------------------5-3-0-----------------------------------|-x-3-2-0~--|

 


 


 [11:00] 


 

 
 e|-----------------------------------|
 B|-3---3---3---3---3---3---3---------|
 G|-2---2---2---2---2---2---2---------|
 D|-0~--0~--0~--0~--0~--0~--0~--------|
 A|-0~--0~--0~--0~--0~--0~--0~--------|
 D|-0~--0~--0~--0~--0~--0~--0~--------|

 


 


 === GUITAR TWO ===


 


 [0:31] 


 

 
 e|-22--20--18--17-------17-------------17--------18--17----------|
 B|------------------18------15-----18------15--------------------|
 G|---------------------------------------------------------------|
 D|---------------------------------------------------------------|
 A|---------------------------------------------------------------|
 D|---------------------------------------------------------------|

 


 


 [2:14] 


 

 
 e|-------------------------------------------------------------------------------------|
 B|-------------------------------------------------------------------------------------|
 G|-------------------------------------------------------------------------------------|
 D|-----7-7-5-5-8-8-----------7-7-5-5-8-8-----------------------7------------------7----|
 A|-5-5-------------7-8---5-5-------------7-8-------8-8-10-10-8--------8-8-10-10-8---8--|
 D|---------------------------------------------8-8----------------8-8------------------|

 


 


 [3:42] 


 

 
 e|-----------------------------------------------------|---------|
 B|-----------------------------------------------------|-------3-|
 G|-----------------------------------------------------|-------2-|
 D|-0-0-0-0-0-0--0-0-0--0-0-0--0-0-0-0-0-0--0-0-0-0-0-0-|-------0-|
 A|-0-0-0-0-0-0--0-0-0--0-0-0--0-0-0-0-0-0--0-0-0-0-0-0-|-------0-|
 D|-0-0-0-0-0-0--0-8-10-8-7-5--3-3-3-3-3-3--3-3-3-3-2-2-|-------0-|

 


 [4:55] 


 

 
 e|---------------------------------------------------------------------|-----|
 B|-----6------6------6------10---------10-----8------6------6------6---|-6-6-|
 G|---7------7------7------7----7-----7------7------7------7------7-----|-7-7-|
 D|-8------8------8------8----------8------8------8------7------5-------|-8-8-|
 A|---------------------------------------------------------------------|-----|
 D|-------(slight variations occur on the rhythm of the 10s here)-------|-----|

 


 


 [6:30] 


 

 
 e|-------------------------------------------------------------|
 B|--------13-10------------------------13-10-------------------|
 G|--------------10-12-9-10----------10-------10-12-9-----------|
 D|--10h12---------------------10-12----------------------------|
 A|-------------------------------------------------------------|
 D|-------------------------------------------------------------|

 


 


 [7:33] 


 

 
 e|-------------------------------------------------------------|
 B|-------------------------------------------------------------|
 G|-------10----9-----------------------------------------------|
 D|----10----12---10----------------10--------------------------|
 A|-12---------------12/14-15-14\12----12-----------------------|
 D|-------------------------------------------------------------|

 


 


 [8:06] 


 

 
 e|-----1-1---|---1-1---1---|---1-1------|---1-1--1---|
 B|-----3-3---|---3-3---3---|---3-3---d--|---3-3--3---|
 G|-----2-2---|---2-2---2---|---2-2---r--|---2-2--2---|
 D|-----0-0---|---0-0---0---|---0-0---u--|---0-0--0---|
 A|-----0-0---|---0-0---0---|---0-0---m--|---0-0--0---|
 D|-----0-0---|---0-0---0---|---0-0---s--|---0-0--0---|

 


 [8:35] 


 

 
 e|---------------1-1--|--------------1-1--1-|-----------------|--------------1-1--|
 B|---------------3-3--|--------------3-3--3-|--------------d--|--------------3-3--|
 G|---------------2-2--|--------------2-2--2-|--------------r--|--------------2-2--|
 D|-----3---2-----0-0--|-----3---2----0-0--0-|-----3---2----u--|-----3---2----0-0--|
 A|-3-5---5---3---0-0--|-3-5---5---3--0-0--0-|-3-5---5---3--m--|-3-5---5---3--0-0--|
 D|---------------0-0--|--------------0-0--0-|--------------s--|--------------0-0--|
 e|------------------1-1--|-----------------------1-1--1-|
 B|------------------3-3--|-----------------------3-3--3-|
 G|------------------2-2--|-----------------------2-2--2-|
 D|-----3---2--------0-0--|-----3---2-------------0-0--0-|
 A|-3-5---5---3-0-5--0-0--|-3-5---5---3-0-5-0-1---0-0--0-|
 D|------------------0-0--|-----------------------0-0--0-|
 e|--------------------------1-1-|--------------------------------------|
 B|--------------------------3-3-|----------------------------3--3--3---|
 G|--------------------------2-2-|----------------------------2--2--2---|
 D|-----3---2----------------0-0-|-----3---2------------------0--0--0---|
 A|-3-5---5---3-0-5-0-1-0-0--0-0-|-3-5---5---3-0-5-0----------0--0--0---|
 D|--------------------------0-0-|-------------------8-7-5-0--0xx0xx0---|

 


 


 [9:22] 


 

 
 e|-------------------------------------------------------------------|-----|
 B|-------------------------------------------------------------------|-----|
 G|-------------------------------------------------------------------|-----|
 D|-----3---2-------------------------------3---2---------------3333--|-12*-|
 A|-3-5---5---3-0-5-0-1-0-0-------------3-5---5---3-0-5-0-1-000-------|-12*-|
 D|---------------------------5-3-0-----------------------------------|-12*-|
 e|-------------------------------------------------------------------|-----------|
 B|-------------------------------------------------------------------|-----------|
 G|-------------------------------------------------------------------|-----------|
 D|-----3---2-------------------------------3---2---------------3333--|-x-0-0-0~--|
 A|-3-5---5---3-0-5-0-1-0-3-0-----------3-5---5---3-0-5-0-1-000-------|-x-0-0-0~--|
 D|---------------------------5-3-0-----------------------------------|-x-3-2-0~--|

 


 


 [9:48] 


 

 
 e|----------------------------------------------|
 B|----------------------------------------------|
 G|-------------5~----3~-------------------------|
 D|-0~----0~----5~----3~---3~--3/555--[x2]-------|
 A|-0~----0~----3~----1~---3~--3/555-------------|
 D|-0~----0~---------------3~--3/555-------------|

 


 [10:10] 


 

 
 e|---------------------------------------------------------------------------------|
 B|---------------------------------------------------------------------------------|
 G|-77777777--101010-121212-141414141414-121212/14-10101010--7-9-109-7-x-9----------|
 D|-xxxxxxxx--x-x-x--x-x-x--x-x-x-x-x-x--x-x-x--x--x-x-x-x---x-x-x-x-x---x----------|
 A|-55555555--8-8-8--101010-121212121212-101010/12-8-8-8-8---5-7-8-7-5-x-7----------|
 D|---------------------------------------------------------------------------------|
 e|---------------------------------------------------------------------------------|
 B|---------------------------------------------------------------------------------|
 G|-77777777--101010-121212-141414141414-121212-141414-10101010--7-9-109-7-----9----|
 D|-xxxxxxxx--x-x-x--x-x-x--x-x-x-x-x-x--x-x-x--x-x-x--x-x-x-x---x-x-x-x-x-----x----|
 A|-55555555--8-8-8--101010-121212121212-101010-121212-8-8-8-8---5-7-8-7-5-----7----|
 D|------------------------------------------------------------------------0-0-0----|
 e|---------------------------------------------------------------------------------|
 B|---------------------------------------------------------------------------------|
 G|-77777777--101010-121212-141414141414-121212/14-10101010--7-9-109-7-x-9----------|
 D|-xxxxxxxx--x-x-x--x-x-x--x-x-x-x-x-x--x-x-x--x--x-x-x-x---x-x-x-x-x---x----------|
 A|-55555555--8-8-8--101010-121212121212-101010/12-8-8-8-8---5-7-8-7-5-x-7----------|
 D|---------------------------------------------------------------------------------|
 e|----------------------------------------------------------------------------------------|
 B|----------------------------------------------------------------------------------------|
 G|-77777777--101010-121212-141414141414-121212-141414-19191919--17-15-141414-1212-10-9-7--|
 D|-xxxxxxxx--x-x-x--x-x-x--x-x-x-x-x-x--x-x-x--x-x-x--x-x-x-x---x--x--x-x-x--x-x--x--x-x--|
 A|-55555555--8-8-8--101010-121212121212-101010-121212-17171717--15-13-121212-1010-8--7-5--|
 D|----------------------------------------------------------------------------------------|

 


 


 [11:00] 


 

 
 e|------------------------------------|
 B|------------------------------------|
 G|------------------------------------|
 D|-0~--0~--0~--0~--0~--0~--0~---------|
 A|-0~--0~--0~--0~--0~--0~--0~---------|
 D|-0~--0~--0~--0~--0~--0~--0~---------|


Important: The song above is NOT stored on the Chordie server. The original song is hosted at www.azchords.com. Chordie works as a search engine and provides on-the-fly formatting. Chordie does not index songs against artists'/composers' will. To remove this song please click here.

This song is displayed as text-only. Transposing and tuning is only available for chordpro-songs.
Rate #2 of 2 versions

Login - add to songbook

SHARE PAGE  




You need to log in to post comments