Guitar Tabs, Chords and Lyrics
Server problems seems to be fixed. Chordie has been experiencing problems with songs disappearing. These issues now seems to be fixed, but still verifying the fix. If you find anything strange, please email admin@chordie.com.


Can't Take My Eyes Off You  Lady Antebellum

 
 -------------------------------------------------------------------------------
 -------------------------------------------------------------------------------

Intro:
 
 e|---------------------------------------------------------------3-----------|
 B|---0-------0-----1---2h3----0-------0-----1---2h3--------1--------1--------|
 G|---0-------0----------------0-------0------------------2-------------0-----|
 D|---0-------0----------------0-------2-----------------2--------------------|
 A|---2-------2----------------2-------2----------------0---------------------|
 E|---3-------2----------------3----------------------------------------------|
 e|--------------2----0-------------------------------------------------------|
 B|--------3--------------3-----0-------0-----1---2h3----0-------0----1---2h3-|
 G|------2----------------------0-------0----------------0-------0------------|
 D|-----0-----------------------0-------2----------------0-------2------------|
 A|----0------------------------2-------2----------------2-------2------------|
 E|-----------------------------3------------------------3--------------------|
 e|---------------------------------------------------------------------------|
 B|-------1------1------0-----------------------------------------------------|
 G|-----2------------------2--------------------------------------------------|
 D|----2-------------2--------------------------------------------------------|
 A|---0-----------------------------------------------------------------------|
 E|---------------------------------------------------------------------------|

What I do during the verse and chorus is just slow strum the chord once then pick
the 3 main notes of the chord. Such as:
 
 e|---------------------------------------------------------------------------|
 B|--------0-----------0------------0---------0------------1-----1------------|
 G|------0---------0--------------0--------------0-------2-----------2--------|
 D|-----0-----------------0-----2--------2--------------2-----------------2---|
 A|----2-----------------------2-----------------------0----------------------|
 E|---3-----------------------------------------------------------------------|

And so on... Also, during the verse, do not play the high note of the D chord, but
do during the chorus.
Verse:
I [G]know that the bridges that I [Em]burned along the [Am]way [D]
Have left [G]me with these walls and these [Em]scars that won't go a[Am]way [D]
[F] And opening [E]up has [Am]always been the hardest [Am]thing [F] until you [G]came
So [C]lay here beside me, just [Am]hold me and don't let [F]go [G]
This [C]feeling i'm feeling is [Am]something i've never [F]known [G]
And I just can't [F]take my [Em]eyes off [Dm]you
And I just can't [F]take my [Em]eyes off [D]you
I [G]love when you tell me that I'm [Em]pretty when i just wake [Am]up [D]
and I [G]love how you tease me when I'm [Em]moody but it's never too [Am]much [D]
[F] I'm falling [E]fast but the [Am]truth is I'm not scared at [Am]all [F]
you climbed my walls [G]
So [C]lay here beside me, just [Am]hold me and don't let [F]go [G]
This [C]feeling I'm feeling is [Am]something I've never [F]known [G]
And I just can't [F]take my [Em]eyes off [Dm]you
And I just can't [F]take my [Em]eyes off [D]you [Am] off [D]you [Am] off [D]you [Am] [A]
So [D]lay here beside me just [Bm]hold me and don't let [G]go [A]
This [D]feeling I'm feeling is [Bm]something I've never [G]known [A]
And I just can't [G]take my [A]eyes off [E]you
And I just can't [G]take my [A]eyes off [F]you [E] [D]

Important: The song above is NOT stored on the Chordie server. The original song is hosted at www.azchords.com. Chordie works as a search engine and provides on-the-fly formatting. Chordie does not index songs against artists'/composers' will. To remove this song please click here.

Text color:
Chord color:
Chord grids: 
Font size:    
Page size: 

A Am Bm C D Dm E Em F G
Rate #1 of 8 versions

Login - add to songbook

SHARE PAGE  



You need to log in to post comments