Guitar Tabs, Chords and Lyrics
Major upgrade!! After one year development the new version of Chordie is now online! Please give feedback.


Reclamation   Lamb of God

 
 d# ]-------------------------------------[ X9
 A# ]---------3---------------------------[
 F# ]------2----2----------2--------------[
 C# ]---------------------------------6^--[
 G# ]-0-0---------1p0-1p0--------3-3--3---[
 C# ]-0-0---0-----1p0-1p0-0--0---3-3--3---[

 


 


 [Intro] - Clean Undertone


 

 
 d# ]-------------------------------------[
 A# ]---------3---------------------------[
 F# ]------2----2----------2--------------[
 C# ]---------------------------------6^--[
 G# ]-------------------------------------[
 C# ]-0-0-----------------0--0---3-3------[

 


 


 [Bridge] - Both Guitars


 

 
 d# ]-------------[ X1
 A# ]-------------[
 F# ]-------------[
 C# ]-5-5-5-5-5-5-[
 G# ]-3-3-3-3-3-3-[
 C# ]-3-3-3-3-3-3-[

 


 * * * * * *


 


 

 
 d# ]-------------------------------------------[ X4
 A# ]-------------------------------------------[
 F# ]-6-------6-6-------6-6-------6-7-7-7-7-7-7-[
 C# ]-3-------3-3-------3-3-------3-4-4-4-4-4-4-[
 G# ]-4-------4-4-------4-4-------4-5-5-5-5-5-5-[
 C# ]-0-0-000-0-0-0-000-0-0-0-000-0-0-0-0-0-0-0-[

 


 * *** * *** * ***


 


 * Its a very strange rhythm the first palm muted open kinda hangs for a second then you


 the triplet


 


 [Verse #2] 


 

 
 d# ]-----------------------------------[ X4
 A# ]----3^-----------------------------[
 F# ]-----------------------6-6-6-6-6-6-[
 C# ]-0---------------------3-3-3-3-3-3-[
 G# ]-0-----1p0-1p0-0-0-----4-4-4-4-4-4-[
 C# ]-0-----1p0-1p0-0-0--0--------------[

 


 *


 [Interlude] - Clean


 

 
 d# ]-------------------------------------[ X2
 A# ]---------3---------------------------[
 F# ]------2----2----------2--------------[
 C# ]---------------------------------6^--[
 G# ]-------------------------------------[
 C# ]-0-0-----------------0--0---3-3------[

 


 


 [Bridge] - Both Guitars


 

 
 d# ]-------------[ X1
 A# ]-------------[
 F# ]-------------[
 C# ]-5-5-5-5-5-5-[
 G# ]-3-3-3-3-3-3-[
 C# ]-3-3-3-3-3-3-[

 


 * * * * * *


 


 [Verse] 


 

 
 d# ]-------------------------------------------[ X4
 A# ]-------------------------------------------[
 F# ]-6-------6-6-------6-6-------6-7-7-7-7-7-7-[
 C# ]-3-------3-3-------3-3-------3-4-4-4-4-4-4-[
 G# ]-4-------4-4-------4-4-------4-5-5-5-5-5-5-[
 C# ]-0-0-000-0-0-0-000-0-0-0-000-0-0-0-0-0-0-0-[

 


 * *** * *** * ***


 [Cborus] 


 

 
 d# ]-------------------------------------------------[
 A# ]-------------------------------------------------[
 F# ]-------------------------------------------------[
 C# ]---6-6---6-6---6-6---6-6---7-7---7-7---7-7---7-7-[
 G# ]---4-4---4-4---4-4---4-4---5-5---5-5---5-5---5-5-[
 C# ]-0-4-4-0-4-4-0-4-4-0-4-4-0-5-5-0-5-5-0-5-5-0-5-5-[

 


 * * * * * * * *


 


 

 
 d# ]------------------------------------------------[
 A# ]------------------------------------------------[
 F# ]------5---5-----------------5---5---------------[
 C# ]----5---5---5-------------5---5---5-------------[
 G# ]-0------------0-0-0-0-0-0-----------0-0-0-0-0-0-[
 C# ]-0------------0-0-0-0-0-0-----------0-0-0-0-0-0-[

 


 * * * * * * * * * * * * *


 


 

 
 d# ]-------------------------------------------------[
 A# ]-------------------------------------------------[
 F# ]-------------------------------------------------[
 C# ]---6-6---6-6---6-6---6-6---7-7---7-7---7-7---7-7-[
 G# ]---4-4---4-4---4-4---4-4---5-5---5-5---5-5---5-5-[
 C# ]-0-4-4-0-4-4-0-4-4-0-4-4-0-5-5-0-5-5-0-5-5-0-5-5-[

 


 * * * * * * * *


 


 

 
 d# ]------------------------------------------------[
 A# ]------------------------------------------------[
 F# ]-----6---6----------------7-7-7-7-----6-6-6-6---[
 C# ]---5---5---5--------------4-4-4-4-4---3-3-3-3-3-[
 G# ]-0-----------0-0-0-0-0-0--5-5-5-5-4---4-4-4-4-3-[
 C# ]-0-----------0-0-0-0-0-0------------0-----------[

 


 * * * * * * * *


 


 

 
 d# ]-------------------------------------------------[
 A# ]-------------------------------------------------[
 F# ]-------------------------------------------------[
 C# ]---6-6---6-6---6-6---6-6---7-7---7-7---7-7---7-7-[
 G# ]---4-4---4-4---4-4---4-4---5-5---5-5---5-5---5-5-[
 C# ]-0-4-4-0-4-4-0-4-4-0-4-4-0-5-5-0-5-5-0-5-5-0-5-5-[

 


 * * * * * * * *


 


 

 
 d# ]------------------------------------------------[
 A# ]------------------------------------------------[
 F# ]------5---5-----------------5---5---------------[
 C# ]----5---5---5-------------5---5---5-------------[
 G# ]-0------------0-0-0-0-0-0-----------0-0-0-0-0-0-[
 C# ]-0------------0-0-0-0-0-0-----------0-0-0-0-0-0-[

 


 * * * * * * * * * * * * *


 


 

 
 d# ]-------------------------------------------------[
 A# ]-------------------------------------------------[
 F# ]-------------------------------------------------[
 C# ]---6-6---6-6---6-6---6-6---7-7---7-7---7-7---7-7-[
 G# ]---4-4---4-4---4-4---4-4---5-5---5-5---5-5---5-5-[
 C# ]-0-4-4-0-4-4-0-4-4-0-4-4-0-5-5-0-5-5-0-5-5-0-5-5-[

 


 * * * * * * * *


 


 [Bridge] - Both Guitars


 

 
 d# ]-------------[ X1
 A# ]-------------[
 F# ]-------------[
 C# ]-5-5-5-5-5-5-[
 G# ]-3-3-3-3-3-3-[
 C# ]-3-3-3-3-3-3-[

 


 * * * * * *


 


 [Verse] 


 

 
 d# ]-------------------------------------------[ X4
 A# ]-------------------------------------------[
 F# ]-6-------6-6-------6-6-------6-7-7-7-7-7-7-[
 C# ]-3-------3-3-------3-3-------3-4-4-4-4-4-4-[
 G# ]-4-------4-4-------4-4-------4-5-5-5-5-5-5-[
 C# ]-0-0-000-0-0-0-000-0-0-0-000-0-0-0-0-0-0-0-[

 


 * *** * *** * ***


 


 [Verse #2] 


 

 
 d# ]-----------------------------------[ X4
 A# ]----3^-----------------------------[
 F# ]-----------------------6-6-6-6-6-6-[
 C# ]-0---------------------3-3-3-3-3-3-[
 G# ]-0-----1p0-1p0-0-0-----4-4-4-4-4-4-[
 C# ]-0-----1p0-1p0-0-0--0--------------[

 


 *


 


 [Cborus] 


 

 
 d# ]-------------------------------------------------[
 A# ]-------------------------------------------------[
 F# ]-------------------------------------------------[
 C# ]---6-6---6-6---6-6---6-6---7-7---7-7---7-7---7-7-[
 G# ]---4-4---4-4---4-4---4-4---5-5---5-5---5-5---5-5-[
 C# ]-0-4-4-0-4-4-0-4-4-0-4-4-0-5-5-0-5-5-0-5-5-0-5-5-[

 


 * * * * * * * *


 


 

 
 d# ]------------------------------------------------[
 A# ]------------------------------------------------[
 F# ]------5---5-----------------5---5---------------[
 C# ]----5---5---5-------------5---5---5-------------[
 G# ]-0------------0-0-0-0-0-0-----------0-0-0-0-0-0-[
 C# ]-0------------0-0-0-0-0-0-----------0-0-0-0-0-0-[

 


 * * * * * * * * * * * * *


 


 

 
 d# ]-------------------------------------------------[
 A# ]-------------------------------------------------[
 F# ]-------------------------------------------------[
 C# ]---6-6---6-6---6-6---6-6---7-7---7-7---7-7---7-7-[
 G# ]---4-4---4-4---4-4---4-4---5-5---5-5---5-5---5-5-[
 C# ]-0-4-4-0-4-4-0-4-4-0-4-4-0-5-5-0-5-5-0-5-5-0-5-5-[

 


 * * * * * * * *


 


 

 
 d# ]------------------------------------------------[
 A# ]------------------------------------------------[
 F# ]-----6---6----------------7-7-7-7-----6-6-6-6---[
 C# ]---5---5---5--------------4-4-4-4-4---3-3-3-3-3-[
 G# ]-0-----------0-0-0-0-0-0--5-5-5-5-4---4-4-4-4-3-[
 C# ]-0-----------0-0-0-0-0-0------------0-----------[

 


 * * * * * * * *


 


 

 
 d# ]-------------------------------------------------[
 A# ]-------------------------------------------------[
 F# ]-------------------------------------------------[
 C# ]---6-6---6-6---6-6---6-6---7-7---7-7---7-7---7-7-[
 G# ]---4-4---4-4---4-4---4-4---5-5---5-5---5-5---5-5-[
 C# ]-0-4-4-0-4-4-0-4-4-0-4-4-0-5-5-0-5-5-0-5-5-0-5-5-[

 


 * * * * * * * *


 


 

 
 d# ]------------------------------------------------[
 A# ]------------------------------------------------[
 F# ]------5---5-----------------5---5---------------[
 C# ]----5---5---5-------------5---5---5-------------[
 G# ]-0------------0-0-0-0-0-0-----------0-0-0-0-0-0-[
 C# ]-0------------0-0-0-0-0-0-----------0-0-0-0-0-0-[

 


 * * * * * * * * * * * * *


 


 

 
 d# ]-------------------------------------------------[
 A# ]-------------------------------------------------[
 F# ]-------------------------------------------------[
 C# ]---6-6---6-6---6-6---6-6---7-7---7-7---7-7---7-7-[
 G# ]---4-4---4-4---4-4---4-4---5-5---5-5---5-5---5-5-[
 C# ]-0-4-4-0-4-4-0-4-4-0-4-4-0-5-5-0-5-5-0-5-5-0-5-5-[

 


 * * * * * * * *


 [Break Down] 


 

 
 d# ]-----------------------------[ X4
 A# ]-----------------------------[
 F# ]-----------------------------[
 C# ]-----------------------------[
 G# ]-----------------------------[
 C# ]-0-0---0-0-0-0--0-0--0-0-0-0-[

 


 


 [Break Down] - Guitar 1


 

 
 d# ]----------------------------------------------[ X4
 A# ]----------------------------------------------[
 F# ]----------------------------------------------[
 C# ]----------------------------------------------[
 G# ]----------------------------------------------[
 C# ]-0-0--0-0----------0-0--0-0--0-0--------------[

 


 ] * * * * * * * * * * [


 ] [Break Down] - Guitar 2 [


 

 
 d# ]----------------------------------------------[
 A# ]----------------------------------------------[
 F# ]----------------------------------------------[
 C# ]----------------------------------------------[
 G# ]----------------------------------------------[
 C# ]---------0-0-0-0-0-0------------0-0-0-0-0-0-0-[

 


 * * * * * * * * * * * * *


 


 

 
 d# ]-------[
 A# ]-------[
 F# ]-------[
 C# ]-------[

 


 G# ]-0-/8\-[


 C# ]-0-/8\-[


 


 

 
 d# ]----------------------------------------------------[ X many many times
 A# ]----------------------------------------------------[
 F# ]----------------------------------------------------[
 C# ]----------------------------------------------------[
 G# ]-------------5p4-----6p5------------7p6-----6p5-6p5-[
 C# ]-0-0-0-0-0-0----0-0-----0-0-0-0-0-0-----0-0---------[

 


 * * * * * * * * * * * * * * * *


 


 [Barmonized] - Guitar 2


 

 
 d# ]----------------------------------------------------[
 A# ]----------------------------------------------------[
 F# ]----------------------------------------------------[
 C# ]-------------6p5-----7p6------------8p7-----7p6-7p6-[
 G# ]----------------------------------------------------[
 C# ]-0-0-0-0-0-0----0-0-----0-0-0-0-0-0-----0-0---------[

 


 * * * * * * * * * * * * * * * *


 


 [Outro] - still working on the rest it will be here soon


 

 
 d# ]-------------------------------------------[
 A# ]-------------------------------------------[
 F# ]-------------------------------------------[
 C# ]-------------------------------------------[
 G# ]-------------------------------------------[
 C# ]-------------------------------------------[


Important: The song above is NOT stored on the Chordie server. The original song is hosted at www.azchords.com. Chordie works as a search engine and provides on-the-fly formatting. Chordie does not index songs against artists'/composers' will. To remove this song please click here.

This song is displayed as text-only. Transposing and tuning is only available for chordpro-songs.
Rate #1 of 1 versions

Jango Player

Login - add to songbook

SHARE PAGE  



You need to log in to post comments