Guitar Tabs, Chords and Lyrics
Update 25:10. 13:00. Site is back up running again. Songbooks are recovered. Woring on getting search back up..


Redneck  Lamb of God

Guitar 1: Mark Morton
Guitar 2: Willie Adler
REDNECK. Words and music by Chris Adler, David Blythe, John Campbell, Mark Morton and
Adler.
Moderately fast 128
Figure 1 Intro
Guitar 1
 
 ||---------|--------------------------------------||
 ||---------|o-------------------------------------||
 ||---------|--------------------------------------||
 ||---------|--------------------------------------||
 ||---------|o-------------------------------------||
 ||--1/18\--|---3p0-0-0---0-0-0-0---10-12-10~~~~~--||

| P.M._ _ _ _ _ _ _|
|Guitar 2
 
 ||---------|--------------------------------------||
 ||---------|o-------------------------------------||
 ||---------|--------------------------------------||
 ||---------|--------------------------------------||
 ||---------|o-------------------------------------||
 ||--1/15\--|---0-0-0-0---0------------------------||

P.M._ _ _ _|
Guitar 1 (play 3 times)
 
 ||------------------------------------------------||
 ||-----------------------------------------------o||
 ||------------------------------------------------||
 ||------------------------------------------------||
 ||-----------------------------------------------o||
 ||--0??-0??-3p0-0-0--0-0-0-0--3-1-0-3??-1-0-5-6------||

| P.M._ _ _ _ |
|Guitar 2 (play 3 times)
 
 ||------------------------------------------------||
 ||-----------------------------------------------o||
 ||------------------------------------------------||
 ||------------------------------------------------||
 ||-----------------------------------------------o||
 ||------------------------------------------------||

Guitar 1
 
 ||-----------------------------------||
 ||-----------------------------------||
 ||-----------------------------------||
 ||-----------------------------------||
 ||------------------3----------------||
 ||--0-3-5-6-3-5-6-7---7-6-5-7-6-5-3--||

|
|Guitar 2
 
 ||-----------------------------------||
 ||-----------------------------------||
 ||-----------------------------------||
 ||-----------------------------------||
 ||------------------3----------------||
 ||--0-3-5-6-3-5-6-7---7-6-5-7-6-5-3--||

Figure 2 verse chords
___________
|_|_|_|_|_|
|_|_|_|_|_|
|_0_|_|_|_|
|_|_|_|_|_|
o_|_|_|_|_|
3 1 x x x x
___________
|_0_|_|_|_|
|_|_|_|_|_|
o_|_|_|_|_|
|_|_|_|_|_| 0=root
|_|_|_|_|_| o=fifth
3 1 x x x x
Figure 3 moveable inverted root-fifth power
Chord shape in standard tuning
___________
o_0_|_|_|_|
|_|_|_|_|_|
|_|_|_|_|_|
|_|_|_|_|_| 0=root
|_|_|_|_|_| o=fifth
1 1 x x x x
Figure 4 moveable minor third diad shape
In standard tuning
___________
|_D_|_|_|_|
|_|_|_|_|_|
0_|_|_|_|_|
|_|_|_|_|_| 0=root
|_|_|_|_|_| D=minor third
3 1 x x x x
Figure 5 last two bars of pre-chorus
Both Guitars
 
 ||----------------------------------|--------------------------------||
 ||----------------------------------|--------------------------------||
 ||----------------------------------|--------------------------------||
 ||----------------------------------|--------------------------------||
 ||----------------------------------|-5-----------6-----------6------||
 ||--0-7\6-0-7\6-0-6\5-0-6\5-3-6-3-5-|---6-5-0-5-7---7-5-0-5-7---7-5-3||

P.M._ _ _| P.M_ _ _ | P.M._|
Figure 6 half time riff chords
___[D5]________
|_|_|_|_|_|
|_|_|_|_|_|
|_|_|_|_|_|
|_|_|_|_|_| 0=root
|_|_|_|_|_| o=fifth
o o x x x x
___[A5]________
o_o_|_|_|_| 7th fret
|_|_|_|_|_|
|_|_|_|_|_|
|_|_|_|_|_| 0=root
|_|_|_|_|_| o=fifth
3 3 x x x x
___[Ab5]________
o_0_|_|_|_| 6th fret
|_|_|_|_|_|
|_|_|_|_|_|
|_|_|_|_|_| 0=root
|_|_|_|_|_| o=fifth
2 2 x x x x
___[G5]________
o_o_|_|_|_| 5th fret
|_|_|_|_|_|
|_|_|_|_|_|
|_|_|_|_|_| 0=root
|_|_|_|_|_| o=fifth
1 1 x x x x
___[F5]________
|_|_|_|_|_|
|_|_|_|_|_|
o_o_|_|_|_|
|_|_|_|_|_| 0=root
|_|_|_|_|_| o=fifth
1 1 x x x x
Figure 7 break riff
Guitar 1
 
 ||-------------------------------------------------------||
 ||-------------------------------------------------------||
 ||-------------------------------------------------------||
 ||-------------------------------------------------------||
 ||--------------11-13------------------------------------||
 ||------12-13---------12-13---10-13-11-13---10-13-11-14--||

this tab may be kind of difficult to read if you dont know power chords and all that fun
so you'll just have to ruff it. good luck

Important: The song above is NOT stored on the Chordie server. The original song is hosted at www.azchords.com. Chordie works as a search engine and provides on-the-fly formatting. Chordie does not index songs against artists'/composers' will. To remove this song please click here.

Text color:
Chord color:
Chord grids: 
Font size:    
Page size: 

A5 Ab5 D5 F5 G5
Rate #2 of 5 versions

Jango Player

Login - add to songbook

SHARE PAGE  




You need to log in to post comments