Guitar Tabs, Chords and Lyrics
Update 25:10. 13:00. Site is back up running again. Songbooks are recovered. Woring on getting search back up..


Terminally Unique   Lamb of God

 
 -------------------------------------------------------------------

 


 Terminally Unique by Lamb of God


 

 
 -------------------------------------------------------------------

 


 


 Tuning -Guitar 1:


 (Drop Db/C#) C# G# C# F# A# D#


 


 Tuning -Guitar 2:


 (Drop Db/C#) C# G# C# F# A# D#


 


 *******************************************************************


 


 | / slide up


 | \ slide down


 | h hammer-on


 | p pull-off


 | r rest


 | ~ vibrato


 | () Ghost note


 | * Tremolo picking


 | pm Palm mute


 | ^ Light Pinch Harmonic


 


 *******************************************************************


 


 My first attempt at tabbing one of my favorite songs of all time.


 Any comments/suggestions are very appreciated!


 


 Have fun.


 


 Tip:


 *I'd recommend practicing the slides for Guitar 2 quite a bit.


 The main riffs are awkward to play at first,


 but sound correct once you get the feel for it.


 


 *******************************************************************


 


 

 
 /------------------------------------------------------------------------------\
 eb|----------------------------||---------------------|
 Bb|----------------------------||---------------------|
 Gb|--7-------------------------||---------------------|
 Db|--7-------------------------||---------------------|
 Ab|--5---0--0---0-0---0---0-0--||--0--0-0--0-0--0--0--|
 Db|------0--0---0-0---0---0-0--||--0--0-0--0-0--0--0--|
 pm - - - - - - - - - - - - - -

 


 Guitar 1


 [/]\ [/]\ [/]\


 Guitar 2


 

 
 eb|-----------------------------------------------------------------------------|
 Bb|-----------------------------------------------------------------------------|
 Gb|-------14----14----------------14----------14----14----------------14--------|
 Db|--(12)----12----14/15-18-15\14----14\11/12----12----14/15-18-15\14----14\11--|
 Ab|-----------------------------------------------------------------------------|
 Db|-----------------------------------------------------------------------------|
 eb|----------------------------||---------------------|
 Bb|----------------------------||---------------------|
 Gb|----------------------------||------------------8--|
 Db|--8-------------------------||------------------8--|
 Ab|--8---8--8---8-8---8---8-8--||--8--8-8--8-8--8--6--|
 Db|--8---8--8---8-8---8---8-8--||--8--8-8--8-8--8-----|
 pm - - - - - - - - - - - - -

 


 Guitar 1


 [/]\ [/]\ [/]\


 Guitar 2


 

 
 eb|---------------------------------------------------------------------------|
 Bb|---------------------------------------------------------------------------|
 Gb|---------------------------------------------------------------------------|
 Db|-----15----15----------------15----------15----15----------------15--------|
 Ab|--13----13----13/15-19-15\13----13\12/13----13----13/15-19-15\13----13\12--|
 Db|---------------------------------------------------------------------------|

 


 


 > Repeat x3


 


 

 
 \------------------------------------------------------------------------------/
 /------------------------------------------------------------------------------\

 


 [0:19] 


 

 
 eb|----------------------------||---------------------|
 Bb|----------------------------||---------------------|
 Gb|--7-------------------------||---------------------|
 Db|--7-------------------------||---------------------|
 Ab|--5---0--0---0-0---0---0-0--||--0--0-0--0-0--0--0--|
 Db|------0--0---0-0---0---0-0--||--0--0-0--0-0--0--0--|
 pm - - - - - - - - - - - - - -

 


 Guitar 1


 [/]\ [/]\ [/]\


 Guitar 2


 

 
 eb|-----------------------------------------------------------------------------|
 Bb|-----------------------------------------------------------------------------|
 Gb|-------14----14----------------14----------14----14----------------14--------|
 Db|--(12)----12----14/15-18-15\14----14\11/12----12----14/15-18-15\14----14\11--|
 Ab|-----------------------------------------------------------------------------|
 Db|-----------------------------------------------------------------------------|
 eb|----------------------------||------------------|
 Bb|----------------------------||------------------|
 Gb|----------------------------||------------------|
 Db|--8-------------------------||--7--------5------|
 Ab|--8---8--8---8-8---8---8-8--||--5--6-0---3-5-6--|
 Db|--8---8--8---8-8---8---8-8--||-----6-0-----5-6--|
 pm - - - - - - - - - - - -

 


 Guitar 1


 [/]\ [/]\ [/]\


 Guitar 2


 

 
 eb|---------------------------------------|
 Bb|---------------------------------------|
 Gb|---------------------------------------|
 Db|-----15----15----------------15--------|
 Ab|--13----13----13/15-19-15\13----13\12--|
 Db|---------------------------------------|
 \------------------------------------------------------------------------------/
 /------------------------------------------------------------------------------\

 


 


 Guitar 1 [0:25]


 

 
 eb|-----------------------------||-----------------------------|
 Bb|-----------------------------||-----------------------------|
 Gb|-----------------------------||-----------------------------|
 Db|-----------------------------||-----------------------------|
 Ab|--0-0-0--5-3-5--0-0-0-0-0-0--||--0-0-0--5-3-6--0-0-0-0-0-0--|
 Db|--0-0-0---------0-0-0-0-0-0--||--0-0-0---------0-0-0-0-0-0--|
 pm - - - - - - - - - - - - - - - - - -
 eb|-----------------------------||-------------------------------|
 Bb|-----------------------------||-------------------------------|
 Gb|-----------------------------||-------------------------------|
 Db|-----------------------------||-------------------------------|
 Ab|--0-0-0--5-3-5--0-0-0-0-0-0--||--8-6-5--5h6p5-----------------|
 Db|--0-0-0---------0-0-0-0-0-0--||---------------6-5-3--0-3-1-3--|
 pm - - - - - - - - - ^
 eb|-----------------------------||-----------------------------|
 Bb|-----------------------------||-----------------------------|
 Gb|-----------------------------||-----------------------------|
 Db|-----------------------------||-----------------------------|
 Ab|--0-0-0--5-3-5--0-0-0-0-0-0--||--0-0-0--5-3-6--0-0-0-0-0-0--|
 Db|--0-0-0---------0-0-0-0-0-0--||--0-0-0---------0-0-0-0-0-0--|
 pm - - - - - - - - - - - - - - - - - -
 eb|----------------------------||------------------|
 Bb|----------------------------||------------------|
 Gb|----------------------------||------------------|
 Db|--3-3-3-3-3-3--4-4-4-4-4-4--||--7-------5-------|
 Ab|--3-3-3-3-3-3--4-4-4-4-4-4--||--5--6-0--3--5-6--|
 Db|--3-3-3-3-3-3--4-4-4-4-4-4--||-----6-0-----5-6--|

 


 pm - - - -


 


 

 
 \------------------------------------------------------------------------------/
 /------------------------------------------------------------------------------\

 


 


 Guitar 1 [0:37]


 

 
 eb|-----------------------------||------------------------------|
 Bb|-----------------------------||------------------------------|
 Gb|-----------------------------||------------------------------|
 Db|-----------------------------||------------------------------|
 Ab|--------6-----5--------------||------------------------------|
 Db|--0-6-7---7-6---6-5--0-3-6---||--3p0--0-0-0-0--3p0--0-0-0-0--|
 pm - - - - - - - -
 eb|-----------------------------||------------------------------|
 Bb|-----------------------------||------------------------------|
 Gb|-----------------------------||------------------------------|
 Db|-----------------------------||------------------------------|
 Ab|--------6-----5--------------||------------------------------|
 Db|--0-6-7---7-6---6-5--0-3-6---||--3b-3-3-3-3-3-3-3-3-3-3------|
 Gradually bend - - - - - - - - - -
 eb|-----------------------------||------------------------------|
 Bb|-----------------------------||------------------------------|
 Gb|-----------------------------||------------------------------|
 Db|-----------------------------||------------------------------|
 Ab|--------6-----5--------------||------------------------------|
 Db|--0-6-7---7-6---6-5--0-3-6---||--3p0--0-0-0-0--3p0--0-0-0-0--|
 pm - - - - - - - -
 eb|-----------------------------||----------------------|
 Bb|-----------------------------||----------------------|
 Gb|-----------------------------||----------------------|
 Db|-----------------------------||--3-3-3--3-3-3--3-----|
 Ab|--------6-----5--------------||--3-3-3--3-3-3--3-----|
 Db|--0-6-7---7-6---6-5--0-3-6---||--3-3-3--3-3-3--3-----|

 


 Rest --


 

 
 \------------------------------------------------------------------------------/
 /------------------------------------------------------------------------------\

 


 


 Guitar 1 [0:50]


 

 
 eb|----------------------------||---------------------------|
 Bb|----------------------------||---------------------------|
 Gb|----------------------------||---------------------------|
 Db|--7-7-7-7-7-7---------------||--7-7-7-7-7-7/5-5-5-5-5-5--|
 Ab|--5-5-5-5-5-5--0-0-0-0-0-0--||--5-5-5-5-5-5/3-3-3-3-3-3--|
 Db|---------------0-0-0-0-0-0--||---------------------------|
 pm - - - - - -
 eb|----------------------------||---------------------------|
 Bb|----------------------------||---------------------------|
 Gb|----------------------------||---------------------------|
 Db|--3-3-3-3-3-3---------------||--3-3-3-3-3-3--------------|
 Ab|--1-1-1-1-1-1--0-0-0-0-0-0--||--1-1-1-1-1-1\6-6-6-6-6-6--|
 Db|---------------0-0-0-0-0-0--||-------------\6-6-6-6-6-6--|
 pm - - - - - -

 


 


 > Repeat x 2


 


 

 
 \------------------------------------------------------------------------------/

 


 


 Guitar 1 [1:02]


 

 
 eb|---------------|
 Bb|---------------|
 Gb|---------------|
 Db|--0-~-~-~------|
 Ab|--0-~-~-~------|
 Db|--0-~-~-~------| *Didn't tab out the short solo (sorry, guys).
 \------------------------------------------------------------------------------/
 /------------------------------------------------------------------------------\

 


 Guitar 1 [1:10]


 

 
 eb|-----------------------------||-----------------------------|
 Bb|-----------------------------||-----------------------------|
 Gb|-----------------------------||-----------------------------|
 Db|-----------------------------||-----------------------------|
 Ab|--0-0-0--5-3-5--0-0-0-0-0-0--||--0-0-0--5-3-6--0-0-0-0-0-0--|
 Db|--0-0-0---------0-0-0-0-0-0--||--0-0-0---------0-0-0-0-0-0--|
 pm - - - - - - - - - - - - - - - - - -
 eb|-----------------------------||-------------------------------|
 Bb|-----------------------------||-------------------------------|
 Gb|-----------------------------||-------------------------------|
 Db|-----------------------------||-------------------------------|
 Ab|--0-0-0--5-3-5--0-0-0-0-0-0--||--8-6-5--5h6p5-----------------|
 Db|--0-0-0---------0-0-0-0-0-0--||---------------6-5-3--0-3-1-3--|
 pm - - - - - - - - - ^
 eb|-----------------------------||-----------------------------|
 Bb|-----------------------------||-----------------------------|
 Gb|-----------------------------||-----------------------------|
 Db|-----------------------------||-----------------------------|
 Ab|--0-0-0--5-3-5--0-0-0-0-0-0--||--0-0-0--5-3-6--0-0-0-0-0-0--|
 Db|--0-0-0---------0-0-0-0-0-0--||--0-0-0---------0-0-0-0-0-0--|
 pm - - - - - - - - - - - - - - - - - -
 eb|----------------------------||------------------|
 Bb|----------------------------||------------------|
 Gb|----------------------------||------------------|
 Db|--3-3-3-3-3-3--4-4-4-4-4-4--||--7-------5-------|
 Ab|--3-3-3-3-3-3--4-4-4-4-4-4--||--5--6-0--3--5-6--|
 Db|--3-3-3-3-3-3--4-4-4-4-4-4--||-----6-0-----5-6--|

 


 pm - - - -


 


 

 
 \------------------------------------------------------------------------------/
 /------------------------------------------------------------------------------\

 


 Guitar 1 [1:22]


 

 
 eb|-----------------------------||------------------------------|
 Bb|-----------------------------||------------------------------|
 Gb|-----------------------------||------------------------------|
 Db|-----------------------------||------------------------------|
 Ab|--------6-----5--------------||------------------------------|
 Db|--0-6-7---7-6---6-5--0-3-6---||--3p0--0-0-0-0--3p0--0-0-0-0--|
 pm - - - - - - - -
 eb|-----------------------------||------------------------------|
 Bb|-----------------------------||------------------------------|
 Gb|-----------------------------||------------------------------|
 Db|-----------------------------||------------------------------|
 Ab|--------6-----5--------------||------------------------------|
 Db|--0-6-7---7-6---6-5--0-3-6---||--3b-3-3-3-3-3-3-3-3-3-3-3----|
 Gradually bend - - - - - - - - - - -
 eb|-----------------------------||------------------------------|
 Bb|-----------------------------||------------------------------|
 Gb|-----------------------------||------------------------------|
 Db|-----------------------------||------------------------------|
 Ab|--------6-----5--------------||------------------------------|
 Db|--0-6-7---7-6---6-5--0-3-6---||--3p0--0-0-0-0--3p0--0-0-0-0--|
 pm - - - - - - - -
 eb|-----------------------------||-----------------------|
 Bb|-----------------------------||-----------------------|
 Gb|-----------------------------||-----------------------|
 Db|-----------------------------||--3-3-3--3-3-3--3------|
 Ab|--------6-----5--------------||--3-3-3--3-3-3--3------|
 Db|--0-6-7---7-6---6-5--0-3-6---||--3-3-3--3-3-3--3------|

 


 Rest --


 

 
 \------------------------------------------------------------------------------/
 /------------------------------------------------------------------------------\

 


 


 Guitar 1 [1:35]


 

 
 eb|----------------------------||---------------------------|
 Bb|----------------------------||---------------------------|
 Gb|----------------------------||---------------------------|
 Db|--7-7-7-7-7-7---------------||--7-7-7-7-7-7/5-5-5-5-5-5--|
 Ab|--5-5-5-5-5-5--0-0-0-0-0-0--||--5-5-5-5-5-5/3-3-3-3-3-3--|
 Db|---------------0-0-0-0-0-0--||---------------------------|
 pm - - - - - -
 eb|----------------------------||---------------------------|
 Bb|----------------------------||---------------------------|
 Gb|----------------------------||---------------------------|
 Db|--3-3-3-3-3-3---------------||--3-3-3-3-3-3--------------|
 Ab|--1-1-1-1-1-1--0-0-0-0-0-0--||--1-1-1-1-1-1\6-6-6-6-6-6--|
 Db|---------------0-0-0-0-0-0--||-------------\6-6-6-6-6-6--|
 pm - - - - - -

 


 


 > Repeat x 2


 


 

 
 \------------------------------------------------------------------------------/
 /------------------------------------------------------------------------------\

 


 


 Guitar 1 [1:47]


 

 
 eb|----------------------------||---------------------------|
 Bb|----------------------------||---------------------------|
 Gb|----------------------------||---------------------------|
 Db|----------------------------||---------------------------|
 Ab|--8-8-8-8-8-8---------------||--8-8-8-8-8-8/7-7-7-7-7-7--|
 Db|---------------0-0-0-0-0-0--||---------------------------|
 pm - - - - - -
 eb|----------------------------||---------------------------|
 Bb|----------------------------||---------------------------|
 Gb|----------------------------||---------------------------|
 Db|----------------------------||---------------------------|
 Ab|--5-5-5-5-5-5---------------||--5-5-5-5-5-5/3-3-3-3-3-3--|
 Db|---------------0-0-0-0-0-0--||---------------------------|
 pm - - - - - -
 eb|----------------------------||---------------------------------|
 Bb|----------------------------||---------------------------------|
 Gb|----------------------------||---------------------------------|
 Db|----------------------------||---------------------------------|
 Ab|--8-8-8-8-8-8---------------||--8-8-8-8-8-8/10-10-10-10-10-10--|
 Db|---------------0-0-0-0-0-0--||---------------------------------|
 pm - - - - - -
 eb|----------------------------||---------------------------|
 Bb|----------------------------||---------------------------|
 Gb|----------------------------||---------------------------|
 Db|----------------------------||---------------------------|
 Ab|--5-5-5-5-5-5---------------||--5-5-5-5-5-5/3-3-3-3-3-3--|
 Db|---------------0-0-0-0-0-0--||---------------------------|
 pm - - - - - -
 \------------------------------------------------------------------------------/
 /------------------------------------------------------------------------------\

 


 


 [2:01] 


 

 
 eb|----------------------------||---------------------|
 Bb|----------------------------||---------------------|
 Gb|--7-------------------------||---------------------|
 Db|--7-------------------------||---------------------|
 Ab|--5---0--0---0-0---0---0-0--||--0--0-0--0-0--0--0--|
 Db|------0--0---0-0---0---0-0--||--0--0-0--0-0--0--0--|
 pm - - - - - - - - - - - - - -

 


 G[/]ui[/]ta[/]r 1


 Guitar 2


 \ \ \


 

 
 eb|-----------------------------------------------------------------------------|
 Bb|-----------------------------------------------------------------------------|
 Gb|-------14----14----------------14----------14----14----------------14--------|
 Db|--(12)----12----14/15-18-15\14----14\11/12----12----14/15-18-15\14----14\11--|
 Ab|-----------------------------------------------------------------------------|
 Db|-----------------------------------------------------------------------------|
 eb|----------------------------||---------------------|
 Bb|----------------------------||---------------------|
 Gb|----------------------------||------------------8--|
 Db|--8-------------------------||------------------8--|
 Ab|--8---8--8---8-8---8---8-8--||--8--8-8--8-8--8--6--|
 Db|--8---8--8---8-8---8---8-8--||--8--8-8--8-8--8-----|
 pm - - - - - - - - - - - - -

 


 G[/]ui[/]ta[/]r 1


 Guitar 2


 \ \ \


 

 
 eb|---------------------------------------------------------------------------|
 Bb|---------------------------------------------------------------------------|
 Gb|---------------------------------------------------------------------------|
 Db|-----15----15----------------15----------15----15----------------15--------|
 Ab|--13----13----13/15-19-15\13----13\12/13----13----13/15-19-15\13----13\12--|
 Db|---------------------------------------------------------------------------|

 


 


 > Repeat x 3


 


 

 
 \------------------------------------------------------------------------------/
 /------------------------------------------------------------------------------\
 eb|----------------------------||---------------------|
 Bb|----------------------------||---------------------|
 Gb|--7-------------------------||---------------------|
 Db|--7-------------------------||---------------------|
 Ab|--5---0--0---0-0---0---0-0--||--0--0-0--0-0--0--0--|
 Db|------0--0---0-0---0---0-0--||--0--0-0--0-0--0--0--|
 pm - - - - - - - - - - - - - -

 


 G[/]ui[/]ta[/]r 1


 Guitar 2


 \ \ \


 

 
 eb|-----------------------------------------------------------------------------|
 Bb|-----------------------------------------------------------------------------|
 Gb|-------14----14----------------14----------14----14----------------14--------|
 Db|--(12)----12----14/15-18-15\14----14\11/12----12----14/15-18-15\14----14\11--|
 Ab|-----------------------------------------------------------------------------|
 Db|-----------------------------------------------------------------------------|
 eb|---------------------------||------------------|
 Bb|---------------------------||------------------|
 Gb|---------------------------||------------------|
 Db|--8------------------------||--7--------5------|
 Ab|--8---8--8---8-8---8--8-8--||--5--6-0---3-5-6--|
 Db|--8---8--8---8-8---8--8-8--||-----6-0-----5-6--|
 pm - - - - - - - - - - - -

 


 G[/]ui[/]ta[/]r 1


 Guitar 2


 \ \ \


 

 
 eb|---------------------------------------|
 Bb|---------------------------------------|
 Gb|---------------------------------------|
 Db|-----15----15----------------15--------|
 Ab|--13----13----13/15-19-15\13----13\12--|
 Db|---------------------------------------|
 \------------------------------------------------------------------------------/

 


 Guitar 1 [2:26] [2:31]


 

 
 eb|---------------||---------------|
 Bb|---------------||---------------|
 Gb|---------------||---------------|
 Db|--0-~-~-~------||--X///---------|
 Ab|--0-~-~-~------||--X///---------|
 Db|--0-~-~-~------||--X///---------| Pick Slide.
 \------------------------------------------------------------------------------/
 /------------------------------------------------------------------------------\

 


 


 Guitar 1 [2:32]


 

 
 eb|-----------------------------------------------------------------|
 Bb|-----------------------------------------------------------------|
 Gb|-----------------------------------------------------------------|
 Db|-----------------------------------------------------------------|
 Ab|-----------------------------------------------------------------|
 Db|--10h12-12-12-12-12-12-12--10h12-12-12-12-12-12-12--10-12-12-12--|
 pm - - - - - - - - - - - - - - - - - - - -

 


 * * * * * * * * * * * * * * * * * * * *


 

 
 eb|-----------------------------------------------------------------|
 Bb|-----------------------------------------------------------------|
 Gb|-----------------------------------------------------------------|
 Db|-----------------------------------------------------------------|
 Ab|-----------------------------------------------------------------|
 Db|--10h12-12-12-12-12-12-12--10h12-12-12-12-12-12-12--12-13-12-10--|
 pm - - - - - - - - - - - - - - - - - - - -

 


 * * * * * * * * * * * * * * * * * * * *


 

 
 eb|-----------------------------------------------------------------|
 Bb|-----------------------------------------------------------------|
 Gb|-----------------------------------------------------------------|
 Db|-----------------------------------------------------------------|
 Ab|-----------------------------------------------------------------|
 Db|--10h12-12-12-12-12-12-12--10h12-12-12-12-12-12-12--10-12-12-12--|
 pm - - - - - - - - - - - - - - - - - - - -

 


 * * * * * * * * * * * * * * * * * * * *


 


 

 
 eb|----------------------------------------|
 Bb|----------------------------------------|
 Gb|----------------------------------------|
 Db|----------------------------------------|
 Ab|----------------------------------------|
 Db|--6-5--3-5-3--5-3--1-3--1-1--1-1--1-1---|

 


 


 Guitar 1


 

 
 eb|-----------------------------------------------------------------|
 Bb|-----------------------------------------------------------------|
 Gb|-----------------------------------------------------------------|
 Db|-----------------------------------------------------------------|
 Ab|-----------------------------------------------------------------|
 Db|--10h12-12-12-12-12-12-12--10h12-12-12-12-12-12-12--10-12-12-12--|
 pm - - - - - - - - - - - - - - - - - - - -

 


 * * * * * * * * * * * * * * * * * * * *


 

 
 eb|-----------------------------------------------------------------|
 Bb|-----------------------------------------------------------------|
 Gb|-----------------------------------------------------------------|
 Db|-----------------------------------------------------------------|
 Ab|-----------------------------------------------------------------|
 Db|--10h12-12-12-12-12-12-12--10h12-12-12-12-12-12-12--12-13-12-10--|
 pm - - - - - - - - - - - - - - - - - - - -

 


 * * * * * * * * * * * * * * * * * * * *


 

 
 eb|-----------------------------------------------------------------|
 Bb|-----------------------------------------------------------------|
 Gb|-----------------------------------------------------------------|
 Db|-----------------------------------------------------------------|
 Ab|-----------------------------------------------------------------|
 Db|--10h12-12-12-12-12-12-12--10h12-12-12-12-12-12-12--10-12-12-12--|
 pm - - - - - - - - - - - - - - - - - - - -

 


 * * * * * * * * * * * * * * * * * * * *


 

 
 eb|------------------------------------|
 Bb|------------------------------------|
 Gb|------------------------------------|
 Db|------------------------------------|
 Ab|----------3----------------3--------|
 Db|--6-5-3-5---6-5-3--6-5-3-5---5-3-5--|

 


 


 > Repeat x 2


 


 

 
 \------------------------------------------------------------------------------/
 /------------------------------------------------------------------------------\

 


 


 Guitar 1 [2:56]


 

 
 eb|---------------------------------------------------------------|
 Bb|---------------------------------------------------------------|
 Gb|---------------------------------------------------------------|
 Db|---------------------------------------------------------------|
 Ab|---------------------------------------------------------------|
 Db|--12-12-12-12-12-12-12-12-12-12-12-12-12-12-12-12-12-12-12...--|
 pm - - - - - - - - - - - - - - - - - - -

 


 * * * * * * * * * * * * * * * * * * *


 

 
 eb|---------------------------------------------------------------|
 Bb|---------------------------------------------------------------|
 Gb|---------------------------------------------------------------|
 Db|---------------------------------------------------------------|
 Ab|---------------------------------------------------------------|
 Db|--10h12-12-12-12-12-12-12-12-12-12-12-12-12-12-12-12-12-12-12--|
 pm - - - - - - - - - - - - - - - - - - - -

 


 * * * * * * * * * * * * * * * * * * * *


 


 

 
 eb|------------------------------------|
 Bb|------------------------------------|
 Gb|------------------------------------|
 Db|------------------------------------|
 Ab|----------3----------------3--------|
 Db|--6-5-3-5---6-5-3--6-5-3-5---5-3-5--|

 


 


 > Repeat x 2


 


 

 
 \------------------------------------------------------------------------------/
 /------------------------------------------------------------------------------\

 


 


 Guitar 1 [3:08]


 

 
 eb|-----------------------------------------------------------------|
 Bb|-----------------------------------------------------------------|
 Gb|-----------------------------------------------------------------|
 Db|-----------------------------------------------------------------|
 Ab|-----------------------------------------------------------------|
 Db|--10h12-12-12-12-12-12-12--10h12-12-12-12-12-12-12--10-12-12-12--|
 pm - - - - - - - - - - - - - - - - - - - -

 


 * * * * * * * * * * * * * * * * * * * *


 

 
 eb|-----------------------------------------------------------------|
 Bb|-----------------------------------------------------------------|
 Gb|-----------------------------------------------------------------|
 Db|-----------------------------------------------------------------|
 Ab|-----------------------------------------------------------------|
 Db|--10h12-12-12-12-12-12-12--10h12-12-12-12-12-12-12--12-13-12-10--|
 pm - - - - - - - - - - - - - - - - - - - -

 


 * * * * * * * * * * * * * * * * * * * *


 

 
 eb|-----------------------------------------------------------------|
 Bb|-----------------------------------------------------------------|
 Gb|-----------------------------------------------------------------|
 Db|-----------------------------------------------------------------|
 Ab|-----------------------------------------------------------------|
 Db|--10h12-12-12-12-12-12-12--10h12-12-12-12-12-12-12--10-12-12-12--|
 pm - - - - - - - - - - - - - - - - - - - -

 


 * * * * * * * * * * * * * * * * * * * *


 

 
 eb|------------------------------------|
 Bb|------------------------------------|
 Gb|------------------------------------|
 Db|------------------------------------|
 Ab|----------3----------------3--------|
 Db|--6-5-3-5---6-5-3--6-5-3-5---5-3-5--|

 


 


 > Repeat x 2


 


 

 
 \------------------------------------------------------------------------------/
 /------------------------------------------------------------------------------\

 


 


 [3:21] 


 

 
 eb|------------------------------------|
 Bb|------------------------------------|
 Gb|------------------------------------|
 Db|------------------------------------|
 Ab|----------3----------------3--------|
 Db|--6-5-3-5---6-5-3--6-5-3-5---5-3-5--|
 eb|------------------------------------|
 Bb|------------------------------------|
 Gb|------------------------------------|
 Db|------------------------------------|
 Ab|----------3----------------3--------|
 Db|--6-5-3-5---6-5-3--6-5-3-5---5-3-5--|
 eb|---------------|
 Bb|---------------|
 Gb|---------------|
 Db|--0-~-~-~------|
 Ab|--0-~-~-~------|
 Db|--0-~-~-~------|

 


 *A pause for Randy's epic, gut-wrenching scream. :o


 


 

 
 \------------------------------------------------------------------------------/
 /------------------------------------------------------------------------------\

 


 [3:26] 


 

 
 eb|----------------------------||---------------------------|
 Bb|----------------------------||---------------------------|
 Gb|----------------------------||---------------------------|
 Db|--7-7-7-7-7-7---------------||--7-7-7-7-7-7/5-5-5-5-5-5--|
 Ab|--5-5-5-5-5-5--0-0-0-0-0-0--||--5-5-5-5-5-5/3-3-3-3-3-3--|
 Db|---------------0-0-0-0-0-0--||---------------------------|
 - - - - - -
 eb|----------------------------||---------------------------|
 Bb|----------------------------||---------------------------|
 Gb|----------------------------||---------------------------|
 Db|--3-3-3-3-3-3---------------||--3-3-3-3-3-3--------------|
 Ab|--1-1-1-1-1-1--0-0-0-0-0-0--||--1-1-1-1-1-1\6-6-6-6-6-6--|
 Db|---------------0-0-0-0-0-0--||-------------\6-6-6-6-6-6--|
 - - - - - -

 


 > Repeat x 2


 


 

 
 \------------------------------------------------------------------------------/

 


 


 [3:39] (Not sure about this part. Let me know if you have any suggestions)


 

 
 eb|----------------------------||---------------------------|
 Bb|----------------------------||---------------------------|
 Gb|----------------------------||---------------------------|
 Db|--7-7-7-7-7-7---------------||--7-7-7-7-7-7/5-5-5-5-5-5--|
 Ab|----------------------------||---------------------------|
 Db|---------------0-0-0-0-0-0--||---------------------------|
 pm - - - - - -

 


 G[/]ui[/]ta[/]r 1


 Guitar 2


 \ \ \


 

 
 eb|----------------------------||---------------------------|
 Bb|----------------------------||---------------------------|
 Gb|----------------------------||---------------------------|
 Db|----------------------------||---------------------------|
 Ab|--8-8-8-8-8-8---------------||--8-8-8-8-8-8/7-7-7-7-7-7--|
 Db|---------------0-0-0-0-0-0--||---------------------------|
 pm - - - - - -
 eb|----------------------------||---------------------------|
 Bb|----------------------------||---------------------------|
 Gb|----------------------------||---------------------------|
 Db|--3-3-3-3-3-3---------------||--3-3-3-3-3-3\5-5-5-5-5-5--|
 Ab|----------------------------||---------------------------|
 Db|---------------0-0-0-0-0-0--||---------------------------|
 pm - - - - - -

 


 G[/]ui[/]ta[/]r 1


 Guitar 2


 \ \ \


 

 
 eb|----------------------------||---------------------------|
 Bb|----------------------------||---------------------------|
 Gb|----------------------------||---------------------------|
 Db|----------------------------||---------------------------|
 Ab|--5-5-5-5-5-5---------------||--5-5-5-5-5-5\7-7-7-7-7-7--|
 Db|---------------0-0-0-0-0-0--||---------------------------|
 pm - - - - - -

 


 


 > Repeat x 2


 


 

 
 \------------------------------------------------------------------------------/
 /------------------------------------------------------------------------------\

 


 


 Guitar 1 [3:52]


 

 
 eb|----------------------------||---------------------|
 Bb|----------------------------||---------------------|
 Gb|--7-------------------------||---------------------|
 Db|--7-------------------------||---------------------|
 Ab|--5---0--0---0-0---0---0-0--||--0--0-0--0-0--0--0--|
 Db|------0--0---0-0---0---0-0--||--0--0-0--0-0--0--0--|
 pm - - - - - - - - - - - - - -

 


 Guitar 2


 

 
 eb|-----------------------------------------------------------------------------|
 Bb|-----------------------------------------------------------------------------|
 Gb|-------14----14----------------14----------14----14----------------14--------|
 Db|--(12)----12----14/15-18-15\14----14\11/12----12----14/15-18-15\14----14\11--|
 Ab|-----------------------------------------------------------------------------|
 Db|-----------------------------------------------------------------------------|

 


 


 Guitar 1


 

 
 eb|----------------------------||---------------------|
 Bb|----------------------------||---------------------|
 Gb|----------------------------||------------------8--|
 Db|--8-------------------------||------------------8--|
 Ab|--8---8--8---8-8---8---8-8--||--8--8-8--8-8--8--6--|
 Db|--8---8--8---8-8---8---8-8--||--8--8-8--8-8--8-----|
 pm - - - - - - - - - - - - -

 


 


 Guitar 2


 

 
 eb|---------------------------------------------------------------------------|
 Bb|---------------------------------------------------------------------------|
 Gb|---------------------------------------------------------------------------|
 Db|-----15----15----------------15----------15----15----------------15--------|
 Ab|--13----13----13/15-19-15\13----13\12/13----13----13/15-19-15\13----13\12--|
 Db|---------------------------------------------------------------------------|

 


 


 > Repeat x3


 


 

 
 \------------------------------------------------------------------------------/
 /------------------------------------------------------------------------------\
 eb|----------------------------||---------------------|
 Bb|----------------------------||---------------------|
 Gb|--7-------------------------||---------------------|
 Db|--7-------------------------||---------------------|
 Ab|--5---0--0---0-0---0---0-0--||--0--0-0--0-0--0--0--|
 Db|------0--0---0-0---0---0-0--||--0--0-0--0-0--0--0--|
 pm - - - - - - - - - - - - - -

 


 G[/]ui[/]ta[/]r 1


 Guitar 2


 \ \ \


 

 
 eb|-----------------------------------------------------------------------------|
 Bb|-----------------------------------------------------------------------------|
 Gb|-------14----14----------------14----------14----14----------------14--------|
 Db|--(12)----12----14/15-18-15\14----14\11/12----12----14/15-18-15\14----14\11--|
 Ab|-----------------------------------------------------------------------------|
 Db|-----------------------------------------------------------------------------|
 eb|--------------------------||------------------|
 Bb|--------------------------||------------------|
 Gb|--------------------------||------------------|
 Db|--8-----------------------||--7--------5------|
 Ab|--8---8--8---8-8---8---8--||--5--6-0---3-5-6--|
 Db|--8---8--8---8-8---8---8--||-----6-0-----5-6--|
 pm - - - - - - - - - - -

 


 G[/]ui[/]ta[/]r 1


 Guitar 2


 \ \ \


 

 
 eb|---------------------------------------|
 Bb|---------------------------------------|
 Gb|---------------------------------------|
 Db|-----15----15----------------15--------|
 Ab|--13----13----13/15-19-15\13----13\12--|
 Db|---------------------------------------|
 \------------------------------------------------------------------------------/

 


 


 Guitar 1 [4:14]


 

 
 eb|---------------|
 Bb|---------------|
 Gb|--7-/-/-/------|
 Db|--7-/-/-/------|
 Ab|--5-/-/-/------|
 Db|---------------|

 


 End.


 

 
 \------------------------------------------------------------------------------/


Important: The song above is NOT stored on the Chordie server. The original song is hosted at www.azchords.com. Chordie works as a search engine and provides on-the-fly formatting. Chordie does not index songs against artists'/composers' will. To remove this song please click here.

This song is displayed as text-only. Transposing and tuning is only available for chordpro-songs.
Rate #2 of 3 versions

Login - add to songbook

SHARE PAGE  



You need to log in to post comments