Guitar Tabs, Chords and Lyrics
Server problems seems to be fixed. Chordie has been experiencing problems with songs disappearing. These issues now seems to be fixed, but still verifying the fix. If you find anything strange, please email admin@chordie.com.


Tomorrow Never Came  Lana Del Rey

[Intro] 
[C] [G] [Am] [Am7]  
 
 e|0-------------------------------|0-------------------------------|
 B|1---------------------------0---|1-------------------------------|
 G|0---------------0-------0---0-0-|2---------------0-------0---0-0-|
 D|2-----------0h2---------0---0-0-|2-----------0h2---------2---2-2-|
 A|3-----------------------2---2-2-|0-----------------------0---0-0-|
 E|------------------------3-------|--------------------------------|

[C] [G] [Am] [Am7]  
 
 e|0-------------------------------|0-------------------------------|
 B|1---------------------------0---|1-------------------------------|
 G|0---------------0-------0---0-0-|2-------2/4-4-4-4\2-0-------0---|
 D|2-----------0h2---------0---0-0-|2-----------------------0h2-----|
 A|3-----------------------2---2-2-|0-------------------------------|
 E|------------------------3-------|--------------------------------|

[Verse 1] 
"[C]Hey, what you [Am]doin'?"
Not a [C]lot
Shakin' and [Am]movin'
At my local [C]spot
Baby, don't ask me [Am]why
Don't ask me [C]why
(why, why, why, why, why, why, [Am]why?)
[Pre-Cborus 1] 
[C]Lay, Lady, [Cmaj7]Lay
On that side of a [C7]paradise
In the Tropic of [F]Cancer
'Cause if I [Fm]had my way
You would al[Em]ways sta[Am]y
And I[Dm]'d be your tiny d[G]ancer, honey
[Cborus] 
[C] I waited for you
In the spot you said to [Am]wait
In the city, on a park b[Am]ench
In the middle of the pourin'[F] rain
'Cause I adored you[Dm]
I just wanted things to be the [F]same
You said to meet me up there to[Dm]morrow
But tomorrow never [C]came[Fmaj7]
Tomorrow never [C]came[G]
[Verse 2] 
[C]Hey, what you [Am]thinkin'?
Penny for your [C]thoughts
Those lights are [Am]blinkin'
On that old juke[C]box
But don't ask me [Am]why
Just swallow some [C]wine
[Am]  
 
 (Wi-wi-wi-wi-wi-wi-wine)

[Pre-Cborus 2] 
[C]Stay, baby, [Cmaj7]stay
On that side of a [C7]paradise
In the Tropic of [F]Cancer
'Cause if I [Fm]had my way
You would al[Em]ways s[Am]tay
And y[Dm]ou'd be my tiny d[G]ancer, baby
[Cborus] 
[C] I waited for you
In the spot you said to [Am]wait
In the city, on a park b[Am]ench
In the middle of the pourin' [F]rain
'Cause I adored you[Dm]
I just wanted things to be the [F]same
You said you'd meet me there to[Dm]morrow
But tomorrow never [C]came[Fmaj7]
Tomorrow never [C]came[G]
[Bridge] 
[Dm] Roses out in your [Am]coun[G]try hous[Dm]e
We played guitar in you[Am]r [G]barn[Dm]
And everyday felt like [Am]Sun[G]day and I[Dm]
I wish we had staye[Am]d [G]home
And I could[F] put on the radi[Dm]o
To our favourite [F]song
Lennon and Yok[Dm]o
We would play all day [F]long
"Isn't life crazy?"[Dm], I said
Now that I'm singin' with S[G]ean
W[Em]hoa, [Dm]oh, oh[C]
[Cborus] 
[C] I could keep waitin' for you
In the spot we always [Am]wait
In the city, on the park b[Am]ench
[Am] In the summer, in the pourin' [F]rain
Honey, don't ignore me[Dm]
I just wanted it to be the [F]same
You said you'd love me like no to[Dm]morrow
I guess tomorrow never c[C]ame
No[Fmaj7], no, no
Tomorrow never [C]came
No[Fmaj7], no
Tomorrow never [C]came
No[Fmaj7], no, no
Tomorrow never c[C]ame.

Important: The song above is NOT stored on the Chordie server. The original song is hosted at www.azchords.com. Chordie works as a search engine and provides on-the-fly formatting. Chordie does not index songs against artists'/composers' will. To remove this song please click here.

Text color:
Chord color:
Chord grids: 
Font size:    
Page size: 

Am Am7 C C7 Cmaj7 Dm Em F Fm Fmaj7 G
Rate #1 of 2 versions

Login - add to songbook

SHARE PAGE  



You need to log in to post comments