Guitar Tabs, Chords and Lyrics
Server problems seems to be fixed. Chordie has been experiencing problems with songs disappearing. These issues now seems to be fixed, but still verifying the fix. If you find anything strange, please email admin@chordie.com.


West Coast  Lana Del Rey

 
 -----------------------

West Coast-Lana Del Rae
 
 -----------------------

Capo-2nd Fret
Intro:
 
 |-------------------------------------|------------------------------------|
 |-------------------------------------|------------------------------------|
 |-------------------------------------|------------------------------------|
 |-9/11-11-11-11---9-11-------14-14-14-|14\11-11-11-11---9-11------14-14-14-|
 |-7/9--9--9--9----7-9--------12-12-12-|12\9--9--9--9----7-9-------12-12-12-|
 |-------------------------------------|------------------------------------|
 |-------------------------------|----------------------------------|
 |-------------------------------|----------------------------------|
 |-------------------------------|----------------------------------|
 |14\11-11-11---9-11-------9-9-9-|9/11-11-11-11---9-11--------------|
 |12\9--9--9----7-9--------7-7-7-|7/9--9--9--9----7-9---------------|
 |-------------------------------|----------------------------------|

Verse:
 
 |------------------------------------|-----------------------------------|
 |------------------------------------|-----------------------------------|
 |------------------------------------|-----------------------------------|
 |-9/11-11-11-11---14-14-14\-9-9-9-9-9|--9-9-9-|9/11-11-11-11-------------|
 |-7/9--9--9--9----12-12-12-\7-7-7-7-7||7-7-7-|7/9--9--9--9---------------|
 |------------------------------------||----------------------------------|
 |--------------------------------|-------------------------------|
 |--------------------------------|-------------------------------|
 |--------------------------------|-------------------------------|
 |11\9-9-9-9----9-9---------9-9-9-|9\7-7-7-7---7-7----------9-9-9-|
 |9-\7-7-7-7----7-7---------7-7-7-|7\5-5-5-5---5-5----------7-7-7-|
 |--------------------------------|-------------------------------|
 |--------------------------------------|------------------------------------|
 |--------------------------------------|------------------------------------|
 |--------------------------------------|------------------------------------|
 |-9/11-11-11-11---9-11--------14-14-14-|14/11-11-11-11---9-11------11-11-11-|
 |-7/9--9--9--9----7-9---------12-12-12-|12/9--9--9--9----7-9-------9--9--9--|
 |--------------------------------------|------------------------------------|
 |--------------------------------|-------------------------------|
 |--------------------------------|-------------------------------|
 |--------------------------------|-------------------------------|
 |11\9-9-9-9----9-9---------9-9-9-|9\7-7-7-7---7-7----------9-9-9-|
 |9-\7-7-7-7----7-7---------7-7-7-|7\5-5-5-5---5-5----------7-7-7-|
 |--------------------------------|-------------------------------|
 |-----------------------------------------------|
 |-----------------------------------------------|
 |-----------------------------------------------|
 |-9/11-11-11-11----11-11-11-11-11-11-11---11-11-|
 |-7/9--9--9--9-----9--9--9--9--9--9--9----9--9--|
 |-----------------------------------------------|
 |-----------------------------------------------|
 |-----------------------------------------------|
 |-----------------------------------------------|
 |-11\9--9--9--9-----9--9--9--9--9--9--9----9--9-|
 |-9-\7--7--7--7-----7--7--7--7--7--7--7----7--7-|
 |-----------------------------------------------|
 |-----------------------------------------------|
 |-----------------------------------------------|
 |-----------------------------------------------|
 |-9\7--7--7--7-----7--7--7/9--9--9--9----9--9---|
 |-7\5--5--5--5-----5--5--5/7--7--7--7----7--7---|
 |-----------------------------------------------|

You're feelin' [Em]hot at the show, I'm feelin' hot to the touch
You say you'll [D]miss me the most, I say I'll miss you so much
Something k[C]eeps me real quiet, I'm a[D]live I'm a-lush
Your l[Em]ove, your[D] love, your[C] love
Chorus:
[Am]I can see my baby[C] swingin'
[Em]His Parliament's on fir[D]e and his hands are up[Am]
On the bal[D]cony and I'm singing
[Em]Ooh baby, Oo[D]h baby, I[C]'m in [D]love
[Am]I can see my swee[C]t boy swayin'
[Em]He's crazy y Cub[D]ano como yo my love[Am]
On the balc[D]ony and I'm saying
[Em]Move baby, mov[D]e baby, I'[C]m in l[D]ove
[Em]I'm in love?
(Verse)
You push it [Em]hard up all the way, I?m feeling hot and on fire
I guess that [D]no one ever really made me feel I?m a child
They all [C]say "oh, cariño", boy, it?s [D]you I desire
Your l[Em]ove, your[D] love, your[C] love
[Am]I can see my baby[C] swingin'
[Em]His Parliament's on fir[D]e and his hands are up[Am]
On the bal[D]cony and I'm singing
[Em]Ooh baby, Oo[D]h baby, I[C]'m in [D]love
[Am]I can see my swee[C]t boy swayin'
[Em]He's crazy y Cub[D]ano como yo my love[Am]
On the balc[D]ony and I'm saying
[Em]Move baby, mov[D]e baby, I'[C]m in l[D]ove
(PLAY 3 TIMES)
(BUT ON THE 3RD TIME YOU PLAY THIS ENDING INSTEAD)
On the bal[D]cony and I'm saying
[Em]Move baby, mov[D]e baby, I'[C]m in l[D]ove
Em (End with Em)
Im' in love...

Important: The song above is NOT stored on the Chordie server. The original song is hosted at www.azchords.com. Chordie works as a search engine and provides on-the-fly formatting. Chordie does not index songs against artists'/composers' will. To remove this song please click here.

Text color:
Chord color:
Chord grids: 
Font size:    
Page size: 

Am C D Em
Rate #1 of 6 versions

Jango Player

Login - add to songbook

SHARE PAGE  



You need to log in to post comments