Guitar Tabs, Chords and Lyrics
Major upgrade!! After one year development the new version of Chordie is now online! Please give feedback.


Tangerine  Led Zeppelin

[1] [2] [3] [4]  
[Am] [-] [-] [-]  
[C/G] [-] [-]Riff [-]1
[Am]Mea - s[Asus4]uring [Am]in [Asus2] a [G]summer's[G-D] day,
Am Asus4 Am Asus2 G G-D D-C Riff 2
on- ly find it slips away to grey,
Am G D (Riff 3)
The hours, they bring me pain.
[D] [C] [D]  
[G] Tan[D-C]gerine-- Tangerine,[C-D]
[G] Living reflec[D-C]tion-- from a dream;[C-D]
[G] I was her lo[D-C]ve--, she was my queen,[C-D]
[G] And now a thousand years[G-D] between.
[Am]Thin[Asus4]king [Am]how[Asus2] it u[G]sed to [G-D] be,
Am Asus4 Am Asus2 G G-D D-C Riff 2
Does she still re- member times like these?
Am G D (Riff 3)
To think of us again?
And I do.
SOLO: Am C/G D F Em F Em Fmaj7
[C] [G] [G-D]  
[C] [D-C]  
[G] Tan[D-C]gerine-- Tangerine,[C-D]
[G] Living reflec[D-C]tion-- from a dream;[C-D]
[G] I was her lo[D-C]ve--, she was my queen,[C-D]
[G] And now a thousand years[G-D] between.
[D]Riff 4
*End*
 
 --------------------------------------------------------------------------------------------------

| Referencias |
 
 --------------------------------------------------------------------------------------------------

Riff 1
 
 e|-5-4-5-4-5-4-5-4-|
 B|-----------------|
 G|-----------------|

Riff 2
[C] [Em7]  
 
 e|-------------|
 B|-------------|
 G|---0-0---0-0-|
 D|--2-----0----|
 A|-3-----2-----|
 E|-------------|

Riff 3
[D] [Dsus4] [G6]  
 
 e|-2------3-2---0-|
 B|-3---33-3-3---3-|
 G|-2---22-2-2---0-|
 D|-0---0--0-0-----|
 A|----------------|
 E|----------------|

Riff 4
[G] [Fmaj7] [G] [G]  
 
 e|--3---------------0---------3------------3-|
 B|--0--0--1--3------0--1--1---3--1--0------3-|
 G|--0---------------2---------0--------0---0-|
 D|--0---------------3---------0------------0-|
 A|--2-------------------------2------------x-|
 E|--3-------------------------3------------3-|


Important: The song above is NOT stored on the Chordie server. The original song is hosted at www.azchords.com. Chordie works as a search engine and provides on-the-fly formatting. Chordie does not index songs against artists'/composers' will. To remove this song please click here.

Text color:
Chord color:
Chord grids: 
Font size:    
Page size: 

Am Asus2 Asus4 C C/G D Dsus4 Em7 Fmaj7 G G6
Rate #1 of 9 versions

Jango Player

Login - add to songbook

SHARE PAGE  




You need to log in to post comments