Guitar Tabs, Chords and Lyrics
Major upgrade!! After one year development the new version of Chordie is now online! Please give feedback.


Lady Midnight  Leonard Cohen

Intro
Q=90
6[C]/8
Gtr I (Ac. Nylon Str. Gtr.)
E S S S S E S S S S E S S S S E S S S S
 
 |-3-3-3-3-3-3-3-3-3-3-|-3-3-3-3-3-3-3-3-3-3-|
 |-5-5-5-5-5-5-5-5-5-5-|-5-5-5-5-5-5-5-5-5-5-|
 |-5-5-5-5-5-5-5-5-5-5-|-5-5-5-5-5-5-5-5-5-5-|
 |-5---------5---------|-5---------5---------|
 |-3---------3---------|-3---------3---------|
 |---------------------|---------------------|

E S S S S E S S S S E S S S S E S S S S
 
 |-3-3-3-3-3-3-3-3-3-3-|-3-3-3-3-3-3-3-3-3-3-||
 |-5-5-5-5-5-5-5-5-5-5-|-5-5-5-5-5-5-5-5-5-5-||
 |-5-5-5-5-5-5-5-5-5-5-|-5-5-5-5-5-5-5-5-5-5-||
 |-5---------5---------|-5---------5---------||
 |-3---------3---------|-3---------3---------||
 |---------------------|---------------------||

1st - 3rd Verses
$
[G]E S S S S E S S S S [G7]E S S S S E S S S S [F]E S S S S E S S S S
 
 ||--3-3-3-3-3-3-3-3-3-3-|-3-3-3-3-3-3-3-3-3-3-|-1-1-1-1-1-1-1-1-1-1-|
 ||o-3-3-3-3-3-3-3-3-3-3-|-3-3-3-3-3-3-3-3-3-3-|-1-1-1-1-1-1-1-1-1-1-|
 ||--4-4-4-4-4-4-4-4-4-4-|-4-4-4-4-4-4-4-4-4-4-|-2-2-2-2-2-2-2-2-2-2-|
 ||--5---------5---------|-3---------3---------|-3---------3---------|
 ||o-5---------5---------|-5---------5---------|-3---------3---------|
 ||----------------------|---------------------|---------------------|

[C]E S S S S E S S S S [G]E S S S S E S S S S [G7]E S S S S E S S S S
 
 |-3-3-3-3-3-3-3-3-3-3-|-3-3-3-3-3-3-3-3-3-3-|-3-3-3-3-3-3-3-3-3-3-|
 |-5-5-5-5-5-5-5-5-5-5-|-3-3-3-3-3-3-3-3-3-3-|-3-3-3-3-3-3-3-3-3-3-|
 |-5-5-5-5-5-5-5-5-5-5-|-4-4-4-4-4-4-4-4-4-4-|-4-4-4-4-4-4-4-4-4-4-|
 |-5---------5---------|-5---------5---------|-3---------3---------|
 |-3---------3---------|-5---------5---------|-5---------5---------|
 |---------------------|---------------------|---------------------|

[F]E S S S S E S S S S [C]E S S S S E S S S S E S S S S E S S S S
 
 |-1-1-1-1-1-1-1-1-1-1-|-3-3-3-3-3-3-3-3-3-3-|-3-3-3-3-3-3-3-3-3-3-|
 |-1-1-1-1-1-1-1-1-1-1-|-5-5-5-5-5-5-5-5-5-5-|-5-5-5-5-5-5-5-5-5-5-|
 |-2-2-2-2-2-2-2-2-2-2-|-5-5-5-5-5-5-5-5-5-5-|-5-5-5-5-5-5-5-5-5-5-|
 |-3---------3---------|-5---------5---------|-5---------5---------|
 |-3---------3---------|-3---------3---------|-3---------3---------|
 |---------------------|---------------------|---------------------|

[C7]E S S S S E S S S S [F]E S S S S E S S S S E S S S S E S S S S
 
 |-3-3-3-3-3-3-3-3-3-3-|-1-1-1-1-1-1-1-1-1-1-|-1-1-1-1-1-1-1-1-1-1-|
 |-5-5-5-5-5-5-5-5-5-5-|-1-1-1-1-1-1-1-1-1-1-|-1-1-1-1-1-1-1-1-1-1-|
 |-3-3-3-3-3-3-3-3-3-3-|-2-2-2-2-2-2-2-2-2-2-|-2-2-2-2-2-2-2-2-2-2-|
 |-5---------5---------|-3---------3---------|-3---------3---------|
 |-3---------3---------|-3---------3---------|-3---------3---------|
 |---------------------|---------------------|---------------------|

[C]E S S S S E S S S S [F]E S S S S E E [Em]E [Dm]E S S S S E S S S S
 
 |-3-3-3-3-3-3-3-3-3-3-|-1-1-1-1-1-1-1-0-|-1-1-1-1-1-1-1-1-1-1-|
 |-5-5-5-5-5-5-5-5-5-5-|-1-1-1-1-1-1-1-0-|-3-3-3-3-3-3-3-3-3-3-|
 |-5-5-5-5-5-5-5-5-5-5-|-2-2-2-2-2-2-2-0-|-2-2-2-2-2-2-2-2-2-2-|
 |-5---------5---------|-3---------3-3-2-|-0---------0---------|
 |-3---------3---------|-3---------------|-0---------0---------|
 |---------------------|-----------------|---------------------|

E S S S S E E [Em7]E [C]E S S S S E S S S S
 
 |-1-1-1-1-1-1-1-0-|-3-3-3-3-3-3-3-3-3-3-|
 |-3-3-3-3-3-3-3-0-|-5-5-5-5-5-5-5-5-5-5-|
 |-2-2-2-2-2-2-2-0-|-5-5-5-5-5-5-5-5-5-5-|
 |-0---------0-0-0-|-5---------5---------|
 |-0---------------|-3---------3---------|
 |-----------------|---------------------|

1.
[F]E S S S S E S S S S [G]E S S S S E S S S S [G7]E S S S S E S S S S
 
 |-1-1-1-1-1-1-1-1-1-1-|-3-3-3-3-3-3-3-3-3-3-|-3-3-3-3-3-3-3-3-3-3-|
 |-1-1-1-1-1-1-1-1-1-1-|-3-3-3-3-3-3-3-3-3-3-|-3-3-3-3-3-3-3-3-3-3-|
 |-2-2-2-2-2-2-2-2-2-2-|-4-4-4-4-4-4-4-4-4-4-|-4-4-4-4-4-4-4-4-4-4-|
 |-3---------3---------|-5---------5---------|-3---------3---------|
 |-3---------3---------|-5---------5---------|-5---------5---------|
 |---------------------|---------------------|---------------------|

[C]E S S S S E S S S S E S S S S E S S S S
 
 |-3-3-3-3-3-3-3-3-3-3-|-3-3-3-3-3-3-3-3-3-3--||
 |-5-5-5-5-5-5-5-5-5-5-|-5-5-5-5-5-5-5-5-5-5-o||
 |-5-5-5-5-5-5-5-5-5-5-|-5-5-5-5-5-5-5-5-5-5--||
 |-5---------5---------|-5---------5----------||
 |-3---------3---------|-3---------3---------o||
 |---------------------|----------------------||

2.,D.S.
[G]E S S S S E S S S S [G7]E S S S S E S S S S [C]E S S S S E S S S S
 
 |-3-3-3-3-3-3-3-3-3-3-|-3-3-3-3-3-3-3-3-3-3-|-3-3-3-3-3-3-3-3-3-3-|
 |-3-3-3-3-3-3-3-3-3-3-|-3-3-3-3-3-3-3-3-3-3-|-5-5-5-5-5-5-5-5-5-5-|
 |-4-4-4-4-4-4-4-4-4-4-|-4-4-4-4-4-4-4-4-4-4-|-5-5-5-5-5-5-5-5-5-5-|
 |-5---------5---------|-3---------3---------|-5---------5---------|
 |-5---------5---------|-5---------5---------|-3---------3---------|
 |---------------------|---------------------|---------------------|

Outro
D.S.
E S S S S E S S S S [G]E S S S S E S S S S [G7]E S S S S E S S S S
 
 |-3-3-3-3-3-3-3-3-3-3--||--3-3-3-3-3-3-3-3-3-3-|-3-3-3-3-3-3-3-3-3-3-|
 |-5-5-5-5-5-5-5-5-5-5--||o-3-3-3-3-3-3-3-3-3-3-|-3-3-3-3-3-3-3-3-3-3-|
 |-5-5-5-5-5-5-5-5-5-5--||--4-4-4-4-4-4-4-4-4-4-|-4-4-4-4-4-4-4-4-4-4-|
 |-5---------5----------||--5---------5---------|-3---------3---------|
 |-3---------3----------||o-5---------5---------|-5---------5---------|
 |----------------------||----------------------|---------------------|

[C]E S S S S E S S S S E S S S S E S S S S 3x
 
 |-3-3-3-3-3-3-3-3-3-3-|-3-3-3-3-3-3-3-3-3-3--||
 |-5-5-5-5-5-5-5-5-5-5-|-5-5-5-5-5-5-5-5-5-5-o||
 |-5-5-5-5-5-5-5-5-5-5-|-5-5-5-5-5-5-5-5-5-5--||
 |-5---------5---------|-5---------5----------||
 |-3---------3---------|-3---------3---------o||
 |---------------------|----------------------||


Important: The song above is NOT stored on the Chordie server. The original song is hosted at www.azchords.com. Chordie works as a search engine and provides on-the-fly formatting. Chordie does not index songs against artists'/composers' will. To remove this song please click here.

Text color:
Chord color:
Chord grids: 
Font size:    
Page size: 

C C7 Dm Em Em7 F G G7
Rate #1 of 8 versions

Jango Player

Login - add to songbook

SHARE PAGE  




You need to log in to post comments