Guitar Tabs, Chords and Lyrics
Update 25:10. 13:00. Site is back up running again. Songbooks are recovered. Woring on getting search back up..


Saskatchewan  Les Trois Accords

Titre:Saskatchewan
Album:Gros Mammouth Album Turbo
Distributeur: Outside
Paroles:Simon Proulx
Musique:Les Trois Accords
Tablature: Alexandre Parr
Tonalité: Ré majeur
Mesure: 6/8
Légende:
(1bar)=Barrure avec l'index
(1)=Index (Doigt utile)
(2)=majeur (Gros doigt)
(3)=Annulaire (Doigt mongole)
(4)=Oriculaire (petit doigt)
(5)=Pouce (Doigt nain dodu)
0=Corde vide (Pas de doigt)
D=Ré majeur, G=Sol majeur, A=La majeur, Bm=Si mineur
Accords utilisés
[D] [A] [G] [Bm] 
 
 E--------2---(2) E--------0--- E--------2---(4) E--------1--------|(1bar)
 B--------3---(3) B--------2---(3) B--------2---(3) B--------3--------|(2)
 G??-------2---(1) G??-------2---(2) G??-------0--- G??-------4-----|(4)
 D--------0--- D--------2---(1) D--------0--- D--------4----|(3)
 A------------ A--------0--- A--------2---(1) A--------1------|(1bar)
 E------------ E------------ E--------3---(2) E---------------|

The riff
guit Alex[D] [D] [A] [A]
 
 E----------------------0--------------------------12--------------------------12---------------------------12--------------|
 B--------------10---10-------10---10------10---10------10---10-------10---10-------10----10-------10---10-------10---10----|
 G??----------11---11-------11---11------11---11-------11---11-------12---12-------12----12-------12---12-------12---12------|
 D--------0---------------------------0--------------------------11---------------------------11----------------------------|
 A--------------------------------------------------------------------------------------------------------------------------|
 E--------------------------------------------------------------------------------------------------------------------------|

guit Alex[Gadd9] [Gadd9] [Bm] [A] [D]
 
 E----------------------10---------------------------12------------------------7--------------------------------------------|
 B--------------10---10-------10---10--------10---10------10---10-------0---0---------------7-------------0---0------0---3--|
 G??----------12---12-------12---12--------12---12-------12---12-------7---7---------------7-------------2---2------2---2----|
 D--------12---------------------------12----------------------------------------------0------------------------------------|
 A--------------------------------------------------------------------------------------------------------------------------|
 E-----------------------------------------------------------------7--------------7--5--------5/7-5-0-2----------3----------|

D A G Bm A D ( perpétuité sauf pour l'intro, le bridge et l'Outro)
Un beau mat[D]in
Je suis parti au lo[A]in
Aller mener mon troup[G]eau[Bm]
En Ontar[D]io
J'ai laissé ma[D] femme
En Saskatche[A]wan
Je lui ai dit bien[G]tôt[Bm]
Tu voir un chapeau[D]
Ca va être le[D] mien
Au bout du che[A]min
Et tu diras voil mon ma[G]ri[Bm]
Qui arrive de la prai[D]rie
Mais mon r[D]etour
Mon belle a[A]mour
M'avait sacré[G] l [Bm]
Pour un gars de Rég[D]ina
J'ai pris mon cha[D]peau
Et mon lass[A]o
Je noie ma pe[G]ine[Bm]
Dans les bars de la [D]pleine
Saskatche[D]waaa-aaa-aan
Tu m'as pris me fe[A]mme
Elle m'a crissé[G] l [Bm]
pour un gars de Rég[D]ina
Saskatche[D]waaa-aaa-aan
Tu m'as pris me fe[A]mme
Depuis qu'elle est par[G]tie[Bm]
Moi je suis un gars fin[D]iiééiiééii
Saskatche[D]waaa-aaa-aan
Tu m'as pris me fe[A]mme
G (silence) Bm
Mon cheval me parle plus
Mes vaches me dises "[D]tuuu-uuu-uuu"
Saskatchew[D]aaa-aaa-aan
Tu m'as pris me fe[A]mme
Je vais prendre mon las[G]so[Bm]
Pis je vais te crissé dans [D]l'eau-ooo-ooo
Saskatchew[D]aaa-aaa-aan
Tu m'as pris me fe[A]mme
[G] [Bm] [D]  
[Fin]___________________________________________________________________________________________________________________________
indica records/Phonoscope/Outside

Important: The song above is NOT stored on the Chordie server. The original song is hosted at www.azchords.com. Chordie works as a search engine and provides on-the-fly formatting. Chordie does not index songs against artists'/composers' will. To remove this song please click here.

Text color:
Chord color:
Chord grids: 
Font size:    
Page size: 

A Bm D G Gadd9
Rate #1 of 5 versions

Jango Player

Login - add to songbook

SHARE PAGE  



You need to log in to post comments