Guitar Tabs, Chords and Lyrics
Update 25:10. 13:00. Site is back up running again. Songbooks are recovered. Woring on getting search back up..


Tu  Les Trois Accords

(INTRO)
Am x3
___ ___ ___ ___ ___ ___
| | | | | | | | | | | |
 
 e|----------1---0-------0-------0-- ||----------1---0-----------------||
 B|------1-------------------3------ ||------1-------------------------||
 G|--2---------------2--------------.||--2-----------------------------||
 D|---------------------------------.||--------------------------------||
 A|-(0)----------------------------- ||-(0)----------------------------||
 E|--------------------------------- ||--------------------------------||

' ' ' ' ' ' ' '
[C] [E] [E] [Am] [F] [C] [E] [E] 
(VERSE) - Au choix arpèges ou accords -
_Arpèges_____________________________________________________________________
Am x2 F
___ ___ ___ ___ ___ ___ ___ ___
| | | | | | | | | | | | | | | |
 
 e|----------1---0-------0-------0-- ||--------------5-------------------||
 B|------1-------------------3------ ||----------6-----------5-------5---||
 G|--2---------------2--------------.||------5-------------------7-------||
 D|---------------------------------.||--7---------------7---------------||
 A|-(0)----------------------------- ||----------------------------------||
 E|--------------------------------- ||----------------------------------||

' ' ' ' ' ' ' '
[Am] ___ ___ ___ ___
| | | | | | | |
 
 e|----------------------------------||
 B|----------6---5-------5-------5---||
 G|------5-------------------7-------||
 D|--7---------------7---------------||
 A|----------------------------------||
 E|--------------------------------- ||

' ' ' '
_____________________________________________________________________________
Am %
Tu? tu marches dans la rue? rue
Et tes [F]souliers ne sont pas fi[Am]nis
Am %
Tu? tu vois de l??herbe drue? drue
Dans les fis[F]sures du pavé [Am]Uni
Am %
Tu? tu regardes la crue? crue
D??une[F] fontaine trèS trèS hau[Am]t débit
(CHORUS)
Toutes ces ch[C]oses qui n??ont[E] pas de fin
To[E]utes ces choses que l??on[Am] garde pour demain
Toutes ces j[F]oies qui n??ont[C] pas de prix
To[E]utes ces joies que tu ne m??as[E] pas repris
(MiniVERSE)
Am %
Tu? tu marches dans la rue? rue
[F] [Am]  
(CHORUS)
Toutes ces ch[C]oses qui n??ont[E] pas de fin
To[E]utes ces choses que l??on[Am] garde pour demain
Toutes ces j[F]oies qui n??ont[C] pas de prix
To[E]utes ces joies que tu ne m??as[E] pas repris
Am %
(début du SOLO en reverse)
Am %
_____ _ ___ ___
| | | | | | | | | |
 
 e|--8--10-8---------8-----------17--|--------------------------------||
 B|-------------10-----------17------|--17----------------------------||
 G|----------------------------------|------17----------14------------||
 D|----------------------------------|--------------------------------||
 A|----------------------------------|--------------------------------||
 E|----------------------------------|--------------------------------||

' ' ' ' ' ' ' '
(VERSE 2)
Am %
Tu? tu remarques de plus
Qu?? chaq[F]ue coin un nouvel [Am]édifice
Am %
Tu? tu fais le pied de grue
Les yeux [F]remplis par les feux d??ar[Am]tifices
Am %
Tu? tu remarques de plus
Qu?? chaq[F]ue coin un nouvel [Am]édifice
Am %
Tu? tu fais le pied de grue
Les yeux [F]remplis par les feux d??ar[Am]tifices
(SOLO)
Am % F Am x6
(Arpège INTRO)
Am x4
___ ___ ___ ___
| | | | | | | |
 
 e|----------1---0-------0-------0-- ||
 B|------1-------------------3------ ||
 G|--2---------------2--------------.||
 D|---------------------------------.||
 A|-(0)----------------------------- ||
 E|--------------------------------- ||

' ' ' '

Important: The song above is NOT stored on the Chordie server. The original song is hosted at www.azchords.com. Chordie works as a search engine and provides on-the-fly formatting. Chordie does not index songs against artists'/composers' will. To remove this song please click here.

Text color:
Chord color:
Chord grids: 
Font size:    
Page size: 

Am C E F
Rate #1 of 1 versions

Jango Player

Login - add to songbook

SHARE PAGE  




You need to log in to post comments