Guitar Tabs, Chords and Lyrics
Server problems seems to be fixed. Chordie has been experiencing problems with songs disappearing. These issues now seems to be fixed, but still verifying the fix. If you find anything strange, please email admin@chordie.com.


Tokyo  Lianne La Havas

Intro: use which ever picking variation sounds best to you
 
 ------
 e|-----------------------------------------------------------------------------------------------|
 B|----10---10---10---10---10---------------------------------------------------------------------|
 G|---7----7----7----7----7------9---9---9---9---9----7---7---7---7---7-----7---7-------9---9-----|
 D|--9----9----9----9----9------7---7---7---7---7----5---5---5---5---5-----5---5---5-/-7---7---7--|
 A|----------------------------9---9---9---9---9----7---7---7---7---7---7-7---7---7-/-9---9---9---|
 E|-----------------------------------------------------------------------------------------------|

OR
 
 e|-----------------------------------------------------------------------------------------------|
 B|---10---10---10---10---10----------------------------------------------------------------------|
 G|-----7----7----7----7----7-----9---9---9---9---9------7---7---7---7---7----7---7---7---9---9---|
 D|--9----9----9----9----9---9-----7---7---7---7---7------5---5---5---5---5----5---5---/---7---7--|
 A|-----------------------------9---9---9---9---9---9---7--7---7---7---7---7-7--7---7-/-9---9---9-|
 E|-----------------------------------------------------------------------------------------------|

Verse 1: Intro picking + chords 00.31 - 00.52
 
 --------

[Bm]I am neon
[F#m]Cold neon
[Em]Not a mystery[Em] [F#m]
[Bm]All I've every known is
[F#m]How to be alone
[Em]It comes naturall[Em]y[F#m]
Prechorus: Prechorus Picking + Bass notes - chords listed below are bass notes, 00.53 - 1.14
 
 ---------- literally just strumming Em here until the F# works fine

[Em] Oh [Bm]baby, can[D] I hold [Em]you?
[(Bm)]Such a [D]cold, [D]cold [Bm]night
[Em] I [Bm]thought I wou[D]ldn't need [Em]to
[(Bm)]I've got my [D]neon[D] li[Bm]ghts
[Em]I'm [Bm]longing just to [D]feel yo[Em]u
[(Bm)]To know that [D]it's [D]alrigh[Bm]t
Em Bm D F#\
Oh baby baby baby baby
Chorus: Groovy slap bass + strum chords(?) + maybe intro picking if you feel like it 1.15 - 1.41
 
 -------

[Bm]I'm out of s[F#m]ight
I'm out of m[Em]ind
[Em]Alone in [F#m]Tokyo
[Bm]You're out of r[F#m]each
Wrong place, wrong [Em]time
Em F#m Bm <- let ring
Alone in Tokyo
Verse 2: Bass + piano + picking 1.42 - 2.02
 
 --------

[(Bm)]Here I go again
[(F#m)]To and fro again
[Em]Overnight delivery[F#m]
[Bm]Grew a thicker skin
[F#m]But now it's wearing thin
[Em]You can see right into me[F#m]
Prechorus: Prechorus Picking + Bass notes 2.03 - 2.24
 
 ---------- 

[Em] Oh [Bm]baby, can[D] I hold [Em]you?
[(Bm)]Such a [D]cold, [D]cold [Bm]night
[Em] I [Bm]thought I wou[D]ldn't need [Em]to
[(Bm)]I've got my[D] neo[D]n l[Bm]ights
[Em]I'm [Bm]longing just to [D]feel yo[Em]u
[(Bm)]To know that [D]it's [D]alrigh[Bm]t
Em Bm D F#\
Oh baby baby baby baby
Chorus: Groovy slap bass + strum chords + maybe intro picking if you feel like it 2.25 - 3.08
 
 -------

[Bm]I'm out of s[F#m]ight
I'm out of m[Em]ind
[Em]Alone in [F#m]Tokyo
[Bm]You're out of r[F#m]each
Wrong place, wrong [Em]time
[Em]Alone in T[F#m]okyo
[Bm]I'm out of s[F#m]ight
Going out of my [Em]mind
[Em]Alone in [F#m]Tokyo
[Bm]You're out of r[F#m]each
Wrong place, wrong [Em]time
[Em]Alone in T[F#m]okyo
-Solo Interlude/end- 3.09 - end
*I'm out of sight*
*I'm out of mind*
*You're out of reach*
*Wrong place, wrong time*
==========================================================================================================
 
 ---------------------------

PRECHORUS ADDITIONAL PARTS:
 
 ---------------------------

Prechorus picking all throughout:
 
 e|--12------|--14\----------------------------------------|
 B|----12----|--14\----------------------------------------|
 G|------12--|--15\-x5 short strums and slide down --------|
 D|----------|--------- to end before chorus --------------|
 A|----------|---------------------------------------------|
 E|----------|---------------------------------------------|

Prechorus Bass:
 
 e|---------------------------------------------------------------------------|
 B|---------------------------------------------------------------------------|
 G|---------------------------------------------------------------------------|
 D|---------------------------------------------------------------------------|
 A|---------------------------------------------------------------------------|
 E|--12----7--10--12----7-7-10-10-7----12----7--10--12----7-7-10-10-7---------|
 e|---------------------------------------------------------------------------|
 B|---------------------------------------------------------------------------|
 G|---------------------------------------------------------------------------|
 D|---------------------------------------------------------------------------|
 A|---------------------------------------------(7)-9--9--9--9--9\------------|
 E|--12----7--10--12----7-7-10-10-7----12----7--10----------------slide to end|

How to play prechorus if strumming: Basically Em chord throughout, changing bass
Do practice the timing as it is quite hard to note down in tab form only
Strum:
[Em] [Em] [Em] [Em] [Bm] [F#]  
 
 e|--0--0--0-|-----0--0---0-0-0-----0--0---0-0-0----|-0-0-0---------2-2-2-2-2\--|
 B|--0--0--0-|-----0--0---0-0-0-----0--0---0-0-0----|-0-0-0---------2-2-2-2-2\--|
 G|--0--0--0-|-----0--0---0-0-0-----0--0---0-0-0----|-0-0-0---------3-3-3-3-3\--|
 D|--2--2----|-----0--0-0h2-2-------0--0-0h2-2------|-2-2-------0-2-4-4-4-4-4\--|
 A|--2--2----|-2-2--------------2-2-------------X3--|-------2-2-----4-4-4-4-4\--|
 E|--0--0----|--------------------------------------|---------------2-2-2-2-2\--|

Alt.Higher "bass":
 
 e|------------------------------------|--------------------------------------|
 B|------------------------------------|--------------------------------------|
 G|------------------------------------|--------------------------------------|
 D|--2--2-2-----0-0-2--2----0-0--------|--2--2-2-----0-2-4-4-4-4-4\-----------|
 A|---------2-2-----------2-----2--x3--|---------2-2--------------------------|
 E|------------------------------------|--------------------------------------|
 ------------------------

CHORUS ADDITIONAL PARTS:
 
 ------------------------

Chorus Bass:
Bm F#m Em Em F#m Bm to end 2nd time through
 
 e|-------------------------------------------------|-------------------------|
 B|-------------------------------------------------|-------------------------|
 G|-------------------------------------------------|-------------------------|
 D|----9----------4--------2-------2--2-----4--4----|-------------------------|
 A|-------------------------------------------------|-------Bm Bass let ring--|
 E|--7----------2-----1--0-------0-------2----------|--7~---to end chorus-----|
 -------------------------------

MISCELLANEOUS ADDITIONAL PARTS:
 
 -------------------------------

Verse 2 Piano part: Pizzicato(?) Picking during solo/outro
 
 e|-------------------------2--------| e|--10-10-9-9-7-7-------------------|
 B|------3--------5------------------| B|----------------10-10-------------|
 G|--2h4------2h4-------2h4------X2--| G|----------------------------------|
 D|----------------------------------| D|--Palm Muted----------------------|
 A|----------------------------------| A|----------------------------------|
 E|----------------------------------| E|----------------------------------|


Important: The song above is NOT stored on the Chordie server. The original song is hosted at www.azchords.com. Chordie works as a search engine and provides on-the-fly formatting. Chordie does not index songs against artists'/composers' will. To remove this song please click here.

Text color:
Chord color:
Chord grids: 
Font size:    
Page size: 

Bm D Em F# F#m
Rate #1 of 1 versions

Jango Player

Login - add to songbook

SHARE PAGE  



You need to log in to post comments