Guitar Tabs, Chords and Lyrics
Server problems seems to be fixed. Chordie has been experiencing problems with songs disappearing. These issues now seems to be fixed, but still verifying the fix. If you find anything strange, please email admin@chordie.com.


Kommst du mit?  Liedfett

Capo III
(wie mans ohne Capo spielt: siehe unten)
Strophe: Am-F-C-G
Refrain: C-G-Am-F
Bridge: Dm-Am, Dm-Am, Dm-Am, G
[Am]Mach dich [F]frei und l[C]ass die [G]alten Zeiten gehn,
Am F C G ...
pack deine Sachen, die Gewohnheit lässt du einfach stehn,
[Am]wehr dich [F]jetzt nicht, sondern [C]lass dich einfach [G]gehn,
[Am]es tut nicht [F]weh, du stirbst [C]nicht, du [G]wirst es schon sehn
[Am]versteck die [F]wunden Stellen [C] und [G]lass es an dich ran
[Am]du bist [F]sicher, hier mit deinem [C]Auge brichst du [G]jeden Bann
[Am]das bisschen [F]Blut lockt doch [C]keine Haie [G]an,
[Am]wo ist dein Stolz, mach einfach [F]das, was dein [C]Hass nicht mehr [G]kann
Refrain:
Kommst du m[C]it, mit [G]mir, drück die[Am] Kippe aus ganz[(Am)] schnell
fühl den[C] Tritt in[G] dir, da[Am] vorne wirds schon hell,
lass den [C]Sturm vorb[G]ei, zieh den [Am]Kragen nochmal hoch
ich [C]bleib da[G]bei, auf [Am]3 rennen wir los
C-G-Am-(Am)x2
[Am]was fragst du [F]dich, [C]nervt dich das viele [G]Denken schon
[Am]wann be[F]kommst du mehr und [C]wo bleibt dein [G]Lohn?
[Am]wofür[F] fragt man sich, Maje[C]stät besteig[G]e deinen Thron
[Am]und merkt wie [F]einsam es dort [C]ist, wo bleibt dein [G]Hohn mein Sohn?
[Am]Wie viel du [F]schläfst, schaffst und[C] tust, intere[G]ssiert mich nicht,
[Am]Hauptsache [F]du hast Spa? und[C] schenkst andern[G] Menschen Licht,
[Am]denk wie du [F]willst, doch das hier [C]ist meine be-[G]scheidene Sicht,
[Am]ist es auch [F]nur ein Glühn,[C] von der ersten[G] Tabakschicht
Refrain x1
[Dm]jetzt dreh die zeit zurück,[Am] du wirst nichts besser machen,
[Dm]doch mit etwas Glück siehst [Am]du den Vorhang von deinem e[Dm]igenen Stück,
er zieht sich ei[Am]nfach so zu, [G]Applaus oder Buh?
[C] [G] [Am]  
 
 e|---------------|---------|--------------|
 B|---------1-----|---3-----|----1-----1---| Das sind die Töne, die man am meisten hört
 G|------------0--|------0--|-------2------| Ich spiele den Part gerne anders (siehe unten)
 D|---------------|---------|--------------|
 A|-0--2-3--------|---------|--0-----------|
 E|---------------|-3-------|--------------|

Refrain x5
 
 -------------------------------------------------------------------------------------------------

Alternative:
[C] [G] [Am]  
 
 e|---------------|---------|----------------|
 B|---------1-----|---3-----|----1-----1-----|
 G|------------0--|------0--|-------2--------| So werden zwischendrin ein paar tiefe Töne
 D|---------------|---------|----------------| eingeschoben, dann klingt das ganze voller
 A|-0--2-3---3----|---------|--0--0---0------|
 E|---------------|-3--3----|----------------|
 -------------------------------------------------------------------------------------------------

Und noch für Leute ohne Capo :)
Strophe: Refrain: Bridge:
[Cm] [G#] [Eb] [Bb] [Eb] [Bb] [Cm] [Fm] [Cm] [Bb]  
 
 e|-3------4------6------6------|-6------6------3----|-8-----3----6-------------|
 B|-4------4------8------6------|-8------6------4----|-9-----4----6-------------|
 G|-5------5------8------7------|-8------7------5----|-10----5----7-------------|
 D|-5------6------8------8------|-8------8------5----|-10----5----8-------------|
 A|-3------6------6------8------|-6------8------3----|-8-----3----8-------------|
 E|--------4-------------6------|--------6-----------|------------6-------------|


Important: The song above is NOT stored on the Chordie server. The original song is hosted at www.azchords.com. Chordie works as a search engine and provides on-the-fly formatting. Chordie does not index songs against artists'/composers' will. To remove this song please click here.

Text color:
Chord color:
Chord grids: 
Font size:    
Page size: 

Am Bb C Cm Dm Eb F Fm G G#
Rate #1 of 2 versions

Login - add to songbook

SHARE PAGE  



You need to log in to post comments