Guitar Tabs, Chords and Lyrics
Server problems seems to be fixed. Chordie has been experiencing problems with songs disappearing. These issues now seems to be fixed, but still verifying the fix. If you find anything strange, please email admin@chordie.com.


A.A.A. qualcuno cercasi  Ligabue

A.A.A. QUALCUNO CERCASI
[Capo I tasto] 
[Intro] E A D
[TAB] 
 
 E|--0---0-------------|--0--0-----------|
 B|--0---0-------2-----|-------3-2---2---|
 G|----------2-4---4-2-|--2--2-----4---4-| X3
 D|-2---2--2-----------|-2--2------------|
 A|--------------------|-----------------|
 E|--------------------|-----------------|

4° volta
 
 E|---0--0-----0--0------------|
 B|---0----2---0---2-3-2---2---|
 G|----------------------4---4-|
 D|-2---2----2---2---4-----2---|
 A|----------------------------|
 E|----------------------------|

[TAB alternativa] 
[Intro/Riff] 
MI LA RE LA
 
 e:-----------------|-----------------|-----------------|-----------------|
 B:-----------------|---------2-------|--------------(2)|-3-2-----2-------|
 G:-----------------|-----2-4---4-2---|------------(4)--|-----4-------4---|x
 D:-2---2-2-2---2-2-|-2---------------|-2---2-2-2---2-2-|-----------------|2
 A:-----------------|-----------------|-----------------|-----------------|
 E:-----------------|-----------------|-----------------|-----------------|

1 . 2 . 3 . 4 . 1 . 2 . 3 . 4 . 1 . 2 . 3 . 4 . 1 . 2 . 3 . 4 .
[E]Forse e' uno buttato via,
forse e' uno [A]zorro, forse una [D]spia,
[E]forse e' il poeta che non ha mai scritto n[A]ient[D]e
[E]Forse e' uno comunque sia,
[A]basta che respiri e che non se [D]ne vada via
[E]forse e' quello che e' come un inci[A]dente[D]
[Fill] 
forse e' cosi'
[Fill] [da Alesandro Marini] 
MI LA RE
 
 e:-----------------|-----------------|-----------------|-----------------|
 B:-----------------|--.--------------|-----------------|-3---------------|
 G:---------1-------|-2---1-----------|-4-4-4-4-4-------|---------4-4-4---|
 D:-2---2-----------|---------2~------|-----------------|-----------------|
 A:-----------------|-----------------|-----------------|-----------------|
 E:-----------------|-----------------|-----------------|-----------------|

1 . 2 . 3 . 4 . 1 . 2 . 3 . 4 . 1 . 2 . 3 . 4 . 1 . 2 . 3 . 4 .
[C.S.] 
Forse e' fiamme e cenere
forse e' una che e' un po' troppo per te
forse e' quella che qui ti tocca bere
Forse e' una che non ne puo' piu'
forse e' quella che "mancavi solo tu"
forse e' la biscia che e' stata troppo in giro
Se [Bm]fosse quello andato a male?
Se [D]fosse quella con l'[E]anima a pile?
Se fosse li' mentre pensi chissa' do[D]v'e'?
Ma c'e' qualcuno anche per [E]te
c'e' qualcuno anche per [A]te
[D]in questo vecchio giro[E]tondo
c'e' qualcuno anche per [A]te
e, [D]forse, e' perso per il [E]mondo
c'e' qualcuno anche per [A]te
e [D]forse se ne sta mo[E]rendo
o sta cercando proprio [A]te
ma [D]c'e' qualcuno anche per [E]te[A] [D]
Forse e' un ladro senza intenzione
forse e' uno snob, forse un barbone,
un equilibrista che sa cos'e' la rete
Forse e' una stella in fondo a un fosso
od una coperta da metterti addosso
o la sanguisuga che ha solo troppa sete
Se fosse quello senza parole?
Se fosse quella che non vuoi vedere?
Se fosse li' mentre pensi chissa' dov'e'?
Ma c'e' qualcuno anche per [E]te
c'e' qualcuno anche per [A]te
[D]in questo vecchio giro[E]tondo
c'e' qualcuno anche per [A]te
e, [D]forse, e' perso per il [E]mondo
c'e' qualcuno anche per [A]te
e [D]forse se ne sta mo[E]rendo
o sta cercando proprio [A]te
ma [D]c'e' qualcuno anche per [E]te[A] [D]
[solo] 
e, in [C#m]mezzo a tutto questo perd[B]ersi,
c'e' un [A]uscio chiuso nell'anima
chi[E]ssa' se ti ricordi la tua chiave dov'[B]e'?
e, [C#m]in mezzo a tutto questo sci[B]ogliersi,
fa [A]piu' il destino o la volonta'?
E se [E]la risposta e' *amore*,
la domanda qual e[B]'?
Qual e[E]'?[A] [D]
C'e' qualcuno anche,
c'e' qualcuno anche,
c'e' qualcuno anche per te

Important: The song above is NOT stored on the Chordie server. The original song is hosted at www.azchords.com. Chordie works as a search engine and provides on-the-fly formatting. Chordie does not index songs against artists'/composers' will. To remove this song please click here.

Text color:
Chord color:
Chord grids: 
Font size:    
Page size: 

A B Bm C#m D E
Rate #2 of 3 versions

Login - add to songbook

SHARE PAGE  




You need to log in to post comments