Guitar Tabs, Chords and Lyrics
Server problems seems to be fixed. Chordie has been experiencing problems with songs disappearing. These issues now seems to be fixed, but still verifying the fix. If you find anything strange, please email admin@chordie.com.


G come GIUNGLA  Ligabue

[Cborus] 
[Gm]G come giungla
[Dm]la notte comunque si allunga
[F]le regole sono saltate
[Cm]le favole sono dimenticate
[Gm]G come guerra
[Dm]e giu tutti quanti per terra
[F]non basta restare al riparo
[Cm]chi vuol sopravvivere deve cambiare
[Verse 1] 
 
 e-------------------------------------------------------
 B-------------------------------------------------------
 G-------------------------------------------------------
 D-------------------------------------------------------
 A--------------------3--5--3----------------------------
 E----3----3----3--6-----------6-------------------------

[Gm]E' sorto il sole su un piccolo mondo
[Dm]e i vecchi banchieri stanno pranzando
[F]ti devi spingere ancora piu fuori
[Cm]che qui sei cacciato o cacciatore
[Gm]la polveriera su cui sei seduto
[Dm]aspetta solo il gesto compiuto
[F]e tutti fumano e buttano cicche
[Cm]hai visto il fuoco come si appicca?
[Cborus] 
[Gm]G come giungla
[Dm]la notte comunque si allunga
[F]le regole sono saltate
[Cm]le favole sono dimenticate
[Gm]G come guerra
[Dm]e giu tutti quanti per terra
[F]non basta restare al riparo
[Cm]chi vuol sopravvivere deve cambiare
[Cborus] 
 
 e-----------------------------------------------------------------------
 B---------------6-------------------6-------------------6---------------
 G------------7-----7-------------7-----7-------------7-----7------------ x2
 D----5--5-------------8--7--7-------------8--7--7-------------8--5--5---
 A-----------------------------------------------------------------------
 E-----------------------------------------------------------------------

[Verse 2] 
 
 e-------------------------------------------------------
 B-------------------------------------------------------
 G-------------------------------------------------------
 D-------------------------------------------------------
 A--------------------3--5--3----------------------------
 E----3----3----3--6-----------6-------------------------

[Gm]Il sole ti e contro ti porta alla luce
[Dm]non riesci a distinguere tutti i nemici
[F]e proprio quando ti senti un po' in pace
[Cm]che sa presentarsi la bestia feroce
[Gm]anche fra loro si stanno sbranando
[Dm]non hanno fame ma mangiano intanto
[F]e l'abitudine che li mantiene
[Cm]cosi spietati cosi senza fine
[Cborus] 
[Gm]G come giungla
[Dm]la notte comunque si allunga
[F]le regole sono saltate
[Cm]le favole sono dimenticate
[Gm]G come guerra
[Dm]e giu tutti quanti per terra
[F]non basta restare al riparo
[Cm]chi vuol sopravvivere deve cambiare
[Cborus] 
 
 e-----------------------------------------------------------------------
 B---------------6-------------------6-------------------6---------------
 G------------7-----7-------------7-----7-------------7-----7------------ x2
 D----5--5-------------8--7--7-------------8--7--7-------------8--5--5---
 A-----------------------------------------------------------------------
 E-----------------------------------------------------------------------

[Bridge] 
 
 e-------------------------------------------------------
 B-------------------------------------------------------
 G------------------------------------------------------- x2
 D-------------------------------------------------------
 A--------------------3--5--3----------------------------
 E----3----3----3--6-----------6-------------------------

[Gm]Occhi arrossati
[Dm]narici imbiancate
[F]denti sbiancanti
[Cm]ghigni tirati
[Gm]c'e un'altra guerra [Dm]in sala riunioni
[F]da cui comunque [Cm]tu resti fuori
[Gm]e guardo fuori ma quanto basta
[Dm]ma quanto basta nascosto
[Cm]potresti essere il prossimo oppure il prossimo pasto
[Gm]e puoi urlare che tanto la giungla [Dm]soffoca la tua voce
[Cm]pero ti lasciano contare su tutti quei mi piace
[Cborus] 
[Gm]G come giungla
[Dm]la notte comunque si allunga
[F]le regole sono saltate
[Cm]le favole sono dimenticate
[Gm]G come guerra
[Dm]e giu tutti quanti per terra
[F]non basta restare al riparo
[Cm]chi vuol sopravvivere deve cambiare
[Cborus] 
 
 e-----------------------------------------------------------------------
 B---------------6-------------------6-------------------6---------------
 G------------7-----7-------------7-----7-------------7-----7------------ x4
 D----5--5-------------8--7--7-------------8--7--7-------------8--5--5---
 A-----------------------------------------------------------------------
 E----------------------------------------------------------------------- 


Important: The song above is NOT stored on the Chordie server. The original song is hosted at www.azchords.com. Chordie works as a search engine and provides on-the-fly formatting. Chordie does not index songs against artists'/composers' will. To remove this song please click here.

Text color:
Chord color:
Chord grids: 
Font size:    
Page size: 

Cm Dm F Gm
Rate #1 of 1 versions

Login - add to songbook

SHARE PAGE  



You need to log in to post comments