Guitar Tabs, Chords and Lyrics
Server problems seems to be fixed. Chordie has been experiencing problems with songs disappearing. These issues now seems to be fixed, but still verifying the fix. If you find anything strange, please email admin@chordie.com.


Ho messo via  Ligabue

HO MESSO VIA
D4 x00233
C7+ 032000
(Intro)
VERSIONE N.1
(N.B.: Questa e' una mia trascrizione dell'intro che uso per
esecuzioni acustiche.)
[G] [C]  
 
 e|--------3------2h3--2---|--0----------0-0-2-3-|
 B|----0---3----3--------3-|--1--------1---1-3-5-|
 G|--2---0-0---------------|--0------0-----------|
 D|--------0---------------|--2------------------|
 A|--------2---------------|--3------------------|
 E|--------3---------------|--3------------------|

[Em] [C] [D]  
 
 --0-----------------|-----------------|
 --0-----0--0--1--3--|------1p0-3------|
 --0---0----0--0--0--|--0~------2------|
 --2-----------------|--0~-------------|
 --2-----------------|-----------------|
 --0-----------------|-----------------|

VERSIONE N.2
 
 mi --2h3-----3--3--2-------------------------------------2-|
 SI ------3------------3/5~--5--7/8--------1--3-----1--0--3-|
 SOL--------0-----------------------4~--4-----------------2-|
 RE --------------------------------------------5~----------|
 LA --------------------------------------------------------|
 MI --------------------------------------------------------|

(Sicuramente si puo' completare aggiungendo quanto meno i bassi.)
(nella progressione, tra il Do e il MIm)
 
 mi-----------0------------0--------|
 SI-----------1------------0--------|
 SOL----------0------------0--------|
 RE-----------2------------2--------|
 LA-----------3------------2--------|
 MI-----------3----3---2---0--------|

VERSIONE N.3
Riff 1:
 
 E--------------------------------------------------------------------~12----|
 B----------------------------------------------------5---------7-----~12----|
 G-----------0-------------------------------------------5---------7--~12----|
 D--------------5--4--0--~5--2--4--5-----------0--~5--------~7--------~12----|
 A---2p0------------------------------2--2--3--------------------------------|
 E--------3------------------------------------------------------------------|

Inoltre THE SUN suggerisce anche di sostituire il C con
un C9 (x32033 opp x32030). A me pare valido solo in alcuni punti,
ma come al solito decidete pure voi :) )
Ho messo [G]via un po' di rumore
dico[C]no cosi' si fa nel como[Em]dino c'è una mina
e tonsille [C]da seimila [D]watt.
Ho messo [G]via i rimpiattini
dico[C]no non ho l'eta'
se si [Em]voltano un momomento
io ci ri[C]gioco perche' a [D]me... [G]va.[C] [Em] [C] [D]
Ho messo [G]via un po' di illusioni
che prima o [C]poi basta cosi'
ne ho messe [Em]via due o tre cartoni
comunque [C]so che sono [D]li'.
Ho messo [G]via un po' di consigli
dicono [C]e' piu' facile
li ho messi [Em]via perche' a sbagliare
sono bra[C]vissimo da [D4]me.
[D]Mi sto fa[Bm]cendo un po' di posto
e che mi a[C]spetto chi lo sa
che posto [Em]vuoto ce n'è stato ce[C] n'e' ce ne sa[D4]ra'.
[D]Ho messo [G]via un bel po' di cose
ma non mi [C]spiego mai il perche'
io non [Em]riesca a [D]metter via [G]te[C]
 
 -3----|-------3----|----------------|------------|-------3----|
 ------|------------|----------------|------------|------------|
 ------|------------|----------------|------------|------------|
 ----5-|-5--5-----5-|-5--5-----------|------------|-5--7-----5-|
 ------|------------|----------------|------------|-3--5-------|
 ------|------------|-------0--3--5/-|-7--8--7--5-|------------|
 -------3----|-/8-----------------|------------|------|
 ------------|-----8--8-----------|------------|------|
 ------------|--------------------|------------|------|
 -5--5-----5-|--------------------|------------|-5--7-|
 ------------|--------------------|------------|-3--5-|
 ------------|-----------0--3--5/-|-7--8--7--5-|------|

(Altra versione)
(1° solo)
 
 --3----3-------------------------0--2----3----3---3/8------------------0--2----|
 ---3----3------------------------1--3-----3----3-----8-----------------1--3----|
 ----0----0-----------------------0--2------0---------------------------0--2----|
 ---------------------------------2--0----------------------------------2--0----|
 -----------------0--2-3-2-0------3-------------------------0-2-3-2-0---3-------|
 -------------0-3-------------3---3----------------------0-3----------3-3-------|

[G] [C] [Em] [C] [D]  
Ho messo [G]via un po' di legnate
i segni [C]quelli non si puo'
che non e' il [Em]male ne' la botta
ma pur[C]troppo il livi[D]do.
Ho messo [G]via un bel po' di foto
che prende[C]ranno polvere
sia su ri[Em]morsi che rimpianti
che ran[C]cori e sui perc[D4]he'
[D]Mi sto fa[Bm]cendo un po' di posto
e che mi a[C]spetto chi lo sa
che posto [Em]vuoto ce n'è stato ce[C] n'e' ce ne sa[D4]ra'.
[D]Ho messo [G]via un bel po' di cose
ma non mi [C]spiego mai il perche'
io non [Em]riesca a [D]metter via [G]te[C]
(solo tromba)
[G] [C] [Em] [C] [D]  
[Bb] In queste scarpe
[F]e su questa terra che [D]dondola
dondola dondola dondola
[Bb] con il conforto di
[F] un cielo che resta [D]li'
Mi sto fa[Bm]cendo un po' di posto
e che mi a[C]spetto chi lo sa
che posto [Em]vuoto ce n'e' stato ce[C] n'e' ce ne sa[D4]ra'.
[D]Ho messo [G]via un bel po' di cose
ma non mi [C]spiego mai il perche'
io non [Em]riesca a [D]metter via
[C7+]riesca a [D]metter via,
[Em]riesca a [D]metter via [G]te[C]
G C Em C D (x4) G
 
 -3---|--------------|----------------|-----|-------------|
 ---3-|/8-7----------|/8-7----/10-8-7/|-8\5-|/5---5/7---7-|
 -----|-----7\/5-4\2-|-----7\---------|-----|---5-----7---|
 -----|--------------|----------------|-----|-------------|
 -----|--------------|----------------|-----|-------------|
 -----|--------------|----------------|-----|-------------|
 --------------|-----------------|---------|--------|
 -15\/12-------|-15\/12-15-12----|---------|--------|
 --------12-12\|--------------12-|-/12-/11-|-/9-/11-|
 --------------|-----------------|---------|--------|
 --------------|-----------------|---------|--------|
 --------------|-----------------|---------|--------|
 ----------------------|-----------------------|----------------------|
 -10/12-12-12-12/15-12-|-10/12-12-12-12--------|-10/12-12-12-12/15-12-|
 ----------------------|----------------/12----|----------------------|
 ----------------------|--------------------12-|----------------------|
 ----------------------|-----------------------|----------------------|
 ----------------------|-----------------------|----------------------|
 -----------------------|-----|
 -10/12-12-12/15-15-15\-|-/12-|
 -----------------------|-/12-|
 -----------------------|-----|
 -----------------------|-----|
 -----------------------|-----|


Important: The song above is NOT stored on the Chordie server. The original song is hosted at www.azchords.com. Chordie works as a search engine and provides on-the-fly formatting. Chordie does not index songs against artists'/composers' will. To remove this song please click here.

Text color:
Chord color:
Chord grids: 
Font size:    
Page size: 

Bb Bm C C7+ D D4 Em F G
Rate #1 of 6 versions

Jango Player

Login - add to songbook

SHARE PAGE  



You need to log in to post comments