Guitar Tabs, Chords and Lyrics
Update 25:10. 13:00. Site is back up running again. Songbooks are recovered. Woring on getting search back up..


Tu sei lei  Ligabue

<i></i>Hello! This is my first tab. I was looking for this tab because i wanted to
dedicate this song to a girl. But I couldn't found them, so I draw this tab. Hope
you enjoy! I love you M.
Intro: C / Am / G / F
C (032010)
Am (x01220)
G (32003)
[F]Dm[(133211)] (xx0231)
Em (022000)
[C]Dopo tutti questi anni[Am]
io non smetto di guardarti[G]
qualche volta ancora a bocca aperta[F]
[C]non finisco di capir[Am]e
non finisci di stu[G]pire
come non dovesse mai finire[F]
[C]vuoi nascondermi i difetti[Am]
mentre a me piacciono tutti[G]
ma non te lo vuoi sentire [F]dire
[C]e ti guardo mentre sogni[Am]
e mi tocca stare fuori[G]
e mi tocca solo indovinare[F]
BRIDGE #1:
[Dm]  
 
 E---------------1----------------------|
 B----------3--------2------------------|
 G----2---------------------------------|
 D--------------------------------------|
 A--------------------------------------|
 E--------------------------------------|

dopo tanti anni e un giorno
[F]  
 
 E---------------1----------------------|
 B----------1--------1------------------|
 G----2---------------------------------|
 D--------------------------------------|
 A--------------------------------------|
 E--------------------------------------|

quando il mare sembra calmo
[C]  
 
 E---------------0----------------------|
 B----------1--------0------------------|
 G----0---------------------------------|
 D--------------------------------------|
 A--------------------------------------|
 E--------------------------------------|

vieni fuori ancora tu
[G]  
 
 E------------3---------------3---------|
 B--------3-------3-------3-------3-----|
 G----0---------------0-----------------|
 D--------------------------------------|
 A--------------------------------------|
 E--------------------------------------|

[Dm]  
 
 E---------------1----------------------|
 B----------3--------2------------------|
 G----2---------------------------------|
 D--------------------------------------|
 A--------------------------------------|
 E--------------------------------------|

con quel nome da straniera
[F]  
 
 E---------------1----------------------|
 B----------1--------1------------------|
 G----2---------------------------------|
 D--------------------------------------|
 A--------------------------------------|
 E--------------------------------------|

da chi √?¬® sempre stata sola
[C]  
 
 E---------------0----------------1---------------1---------|
 B----------1--------1--------1-------1-------1-------2-----|
 G----0-------------------2---------------2-----------------|
 D----------------------------------------------------------|
 A----------------------------------------------------------|
 E----------------------------------------------------------|

ma da un po` non deve piu` perch√?¬®
[C]tu sei l[Am]ei
tu sei [G]lei
fra cosi tanta ge[F]nte
[C]tu sei l[Am]ei
tu sei [G]lei
e lo sei stata semp[F]re
[C]e quegli occhi li conosco[Am]
io li ho visti spesso nudi[G]
ma non si vedeva mai la fine[F]
[C]il tuo cuore accelerat[Am]o
le pupille dilata[G]te
e non mi restituisci il cuore[F]
[Dm]  
 
 E---------------1----------------------|
 B----------3--------2------------------|
 G----2---------------------------------|
 D--------------------------------------|
 A--------------------------------------|
 E--------------------------------------|

dopo tanti anni e un giorno
[F]  
 
 E---------------1----------------------|
 B----------1--------1------------------|
 G----2---------------------------------|
 D--------------------------------------|
 A--------------------------------------|
 E--------------------------------------|

quando il vento sembra fermo
[C]  
 
 E---------------0----------------------|
 B----------1--------0------------------|
 G----0---------------------------------|
 D--------------------------------------|
 A--------------------------------------|
 E--------------------------------------|

vieni fuori sempre tu
[G]  
 
 E------------3---------------3---------|
 B--------3-------3-------3-------3-----|
 G----0---------------0-----------------|
 D--------------------------------------|
 A--------------------------------------|
 E--------------------------------------|

[Dm]  
 
 E---------------1----------------------|
 B----------3--------2------------------|
 G----2---------------------------------|
 D--------------------------------------|
 A--------------------------------------|
 E--------------------------------------|

con quel nome da straniera
[F]  
 
 E---------------1----------------------|
 B----------1--------1------------------|
 G----2---------------------------------|
 D--------------------------------------|
 A--------------------------------------|
 E--------------------------------------|

da chi riesce a stare sola
[C] [F]  
 
 E---------------0----------------1---------------1---------|
 B----------1--------1--------1-------1-------1-------1-----|
 G----0-------------------2---------------2-----------------|
 D----------------------------------------------------------|
 A----------------------------------------------------------|
 E----------------------------------------------------------|

ma da un po` non deve piu` perch√?¬®
[C]tu sei l[Am]ei
tu sei [G]lei
fra cosi tanta ge[F]nte
[C]tu sei l[Am]ei
tu sei [G]lei
e lo sei stata semp[F]re
INTERLUDE:
[Dm]sei l'universo intero
[F]ci ha fatto rincontrare
qualcos[Em]a di sicuro vorr√?¬ di[F]re
[C]tu sei [Am]lei
come sei[G]
inesorabilmente[F]
BRIDGE #2:
[Dm]  
 
 E--------------------------------------------------|
 B----------3----------3----------3----------3------|
 G----2----------2----------2----------2----------2-|
 D--------------------------------------------------|
 A--------------------------------------------------|
 E--------------------------------------------------|

e mi hai salvato tante volte
[F]  
 
 E--------------------------------------------------|
 B----------1----------1----------1----------1------|
 G----2----------2----------2----------2----------2-|
 D--------------------------------------------------|
 A--------------------------------------------------|
 E--------------------------------------------------|

da qualche tipo di altra morte
[C] [G]  
 
 E--------------------------------------------------|
 B----------1----------1----------3----------3------|
 G----0----------0----------0----------0----------0-|
 D--------------------------------------------------|
 A--------------------------------------------------|
 E--------------------------------------------------|

andando dritta sulla verita`
[Dm]  
 
 E--------------------------------------------------|
 B----------3----------3----------3----------3------|
 G----2----------2----------2----------2----------2-|
 D--------------------------------------------------|
 A--------------------------------------------------|
 E--------------------------------------------------|

e mi regali un altro giorno
[F]  
 
 E--------------------------------------------------|
 B----------1----------1----------1----------1------|
 G----2----------2----------2----------2----------2-|
 D--------------------------------------------------|
 A--------------------------------------------------|
 E--------------------------------------------------|

in cui sembra tutto fermo
[C] [G]  
 
 E--------------------------------------------------|
 B----------1----------1----------3----------3------|
 G----0----------0----------0----------0----------0-|
 D--------------------------------------------------|
 A--------------------------------------------------|
 E--------------------------------------------------|

ma tutto si trasforma, tutto si conferma
[Dm]  
 
 E--------------------------------------------------|
 B----------3----------3----------3----------3------|
 G----2----------2----------2----------2----------2-|
 D--------------------------------------------------|
 A--------------------------------------------------|
 E--------------------------------------------------|

e lasci in giro il tuo profumo
[F]  
 
 E--------------------------------------------------|
 B----------1----------1----------1----------1------|
 G----2----------2----------2----------2----------2-|
 D--------------------------------------------------|
 A--------------------------------------------------|
 E--------------------------------------------------|

come a dirmi "io ci sono"
[C] [G]  
 
 E--------------------------------------------------|
 B----------1----------1----------3----------3------|
 G----0----------0----------0----------0----------0-|
 D--------------------------------------------------|
 A--------------------------------------------------|
 E--------------------------------------------------|

come a dirmi sar√?¬≤ sempre qua perch√?¬®..
CHORUS (x1)
INTERLUDE (x1)
Thanks! Comment if I made a mistake. D:

Important: The song above is NOT stored on the Chordie server. The original song is hosted at www.azchords.com. Chordie works as a search engine and provides on-the-fly formatting. Chordie does not index songs against artists'/composers' will. To remove this song please click here.

Text color:
Chord color:
Chord grids: 
Font size:    
Page size: 

Am C Dm Em F G
Rate #1 of 6 versions

Jango Player

Login - add to songbook

SHARE PAGE  




You need to log in to post comments