Guitar Tabs, Chords and Lyrics
Major upgrade!! After one year development the new version of Chordie is now online! Please give feedback.


A Place for My Head  Linkin Park

this tab is 100% correct
Tuning: Dropped D one half step down
[C#] [G#] [C#] [F#] [A#] [D#]  
[Intro and Verse] 
 
 -|-------------------------------|------------------------------------------|-
 -|-------------------------------|------------------------------------------|-
 -|------444-5-4-2----------------|------444-5-4-2---------------------------|-
 -|-2--2-----------5--5-333-3-3-5-|-2--2-----------5-5-333-------------------|-
 -|-------------------------------|------------------------7-\---------------|-
 -|-------------------------------|------------------------------------------|-

8 clean, then 7 distorted Then this once
[Cborus] 
 
 -|--------------------------------------------------------------------------|-
 -|--------------------------------------------------------------------------|-
 -|--------------------------------------------------------------------------|-
 -|-2--2--999-10-9-7-5--5--333-3-3-5-----------------------------------------|-
 -|-2--2--999-10-9-7-5--5--333-3-3-5-----------------------------------------|-
 -|-2--2--999-10-9-7-5--5--333-3-3-5-----------------------------------------|-

Play 4 times
[Verse] 
Clean Distortion Distortion
 
 -|----------------|---------------|-----------------------------------------|-
 -|----------------|---------------|-----------------------------------------|-
 -|----------------|---------------|-----------------------------------------|-
 -|------444-5-4-2-|---------------|------444-5-4-2--------------------------|-
 -|-2--2-----------|-5-5-333-3-3-5-|-2--2-----------5-5-333-3-3-5------------|-
 -|----------------|---------------|-----------------------------------------|-

Once Once Play 4 times
[Bridge] 
 
 -|--------------------------------------------------------------------------|-
 -|--------------------------------------------------------------------------|-
 -|-----5-------5------------------------------------------------------------|-
 -|-2---5---2---5------------------------------------------------------------|-
 -|-2---3---2---3------------------------------------------------------------|-
 -|-2-------2----------------------------------------------------------------|-

Play Once
[Cborus] 
 
 -|--------------------------------------------------------------------------|-
 -|--------------------------------------------------------------------------|-
 -|--------------------------------------------------------------------------|-
 -|-2--2--999-10-9-7-5--5--333-3-3-5-----------------------------------------|-
 -|-2--2--999-10-9-7-5--5--333-3-3-5-----------------------------------------|-
 -|-2--2--999-10-9-7-5--5--333-3-3-5-----------------------------------------|-

Play 4 times
===
DJ has some stuff here
===
[Cborus] 
 
 -|---------------------------------------------------------------------------|-
 -|---------------------------------------------------------------------------|-
 -|---------------------------------------------------------------------------|-
 -|-2--2--999-10-9-7-5--5--333-3-3-5------------------------------------------|-
 -|-2--2--999-10-9-7-5--5--333-3-3-5------------------------------------------|-
 -|-2--2--999-10-9-7-5--5--333-3-3-5------------------------------------------|-

Play 8 times
[Cborus] 
 
 -|-----------------------------|-----------------------------|---------------|-
 -|---------------------------8-|---------------------------8-|---------------|-
 -|---------------------------x-|---------------------------x-|---------------|-
 -|-2-2--222-2--2-2-2--222-2--5-|-2-2--222-2--2-2-2--222-2--5-|-2-2-----------|-
 -|-2-2--222-2--2-2-2--222-2--5-|-2-2--222-2--2-2-2--222-2--5-|-2-2-----------|-
 -|-2-2--222-2--2-2-2--222-2--5-|-2-2--222-2--2-2-2--222-2--5-|-2-2-----------|-

PM.....................| Chopped off PM
Play 4 times Play 4 times Once

Important: The song above is NOT stored on the Chordie server. The original song is hosted at www.azchords.com. Chordie works as a search engine and provides on-the-fly formatting. Chordie does not index songs against artists'/composers' will. To remove this song please click here.

Text color:
Chord color:
Chord grids: 
Font size:    
Page size: 

A# C# D# F# G#
Rate #1 of 9 versions

Login - add to songbook

SHARE PAGE  




You need to log in to post comments