Guitar Tabs, Chords and Lyrics
Server problems seems to be fixed. Chordie has been experiencing problems with songs disappearing. These issues now seems to be fixed, but still verifying the fix. If you find anything strange, please email admin@chordie.com.


Kiss Me Deadly  Lita Ford

Kiss me deadly (Lita Ford) in D
Riff (in D)
 
 e------------------------------------------------------------------|
 B------------------------------------------------------------------|
 G----7---6---7------7---6---7--------------------------------------|
 D---------------7---------------5----------------------------------|
 A------------------------------------------------------------------|
 E------------------------------------------------------------------|

[D]I went to a party last Saturday night
[G]I didn't get laid, I got in a fight
[D]uh huh, it ain't no b[G]ig thing
[D]late for my job and the traffic was bad
[G]had to borrow ten bucks from my old man
[D]uh huh, it ain't no b[G]ig thing
[D]I went to a party last Saturday night,
[G]I told you that story and I'll be alright
[D]uh huh, it ain't no b[G]ig thing
D (riff) G
But I know what I Like
D (riff) G
I know I like dancin' with you
D (riff) G
And I know what you like,
D (riff) G A
I know you like dancin' with me
[D]Kiss me once...[G] [A]
Kiss me twice
[D]come on, pretty baby [G]kiss me deadly[A]
Had a few beers, gettin' high
sittin', watchin' the time go by
uh huh, it ain't no big thing
nothin' to eat and no tv
lookin' in the mirror don't do it for me
uh huh, it ain't to big thing
D (riff) G
But I know what I Like
D (riff) G
I know I like dancin' with you
D (riff) G
And I know what you like,
D (riff) G A
I know you like dancin' with me
[D]Kiss me once...[G] [A]
Kiss me twice
[D]come on, pretty baby [G]kiss me deadly[A]
Break D G A etc
Note: the original is in C, so in that case play C-F-G instead of D-G-A, intro in C:
 
 e------------------------------------------------------------------|
 B---1-- 0---1-------1---0---1--------------------------------------|
 G---------------0--------------------------------------------------|
 D-------------------------------3----------------------------------|
 A------------------------------------------------------------------|
 E------------------------------------------------------------------|


Important: The song above is NOT stored on the Chordie server. The original song is hosted at www.azchords.com. Chordie works as a search engine and provides on-the-fly formatting. Chordie does not index songs against artists'/composers' will. To remove this song please click here.

Text color:
Chord color:
Chord grids: 
Font size:    
Page size: 

A D G
Rate #1 of 3 versions

Login - add to songbook

SHARE PAGE  




You need to log in to post comments