Guitar Tabs, Chords and Lyrics
Server problems seems to be fixed. Chordie has been experiencing problems with songs disappearing. These issues now seems to be fixed, but still verifying the fix. If you find anything strange, please email admin@chordie.com.


Move  Little Mix

Play this through out Jade's and Leigh-Anne's parts
[intro] 
 
 E|-----------------------------------|
 B|-----------------------------------|
 G|-----------------------------------|
 D|-----------------------------------|
 A|-----3--------3--------3--------3--|
 E|--4--------4--------4--------4-----|

if you want to kind of play the mmm's that we hear at the start you can play them
by sliding from the 8 fret one the E (sixth string) back to 4rth fret
like this
[intro] 
 
 E|-----------------------------|
 B|-----------------------------|
 G|-----------------------------|
 D|-----------------------------|
 A|-----------------------------|
 E|--4--8---8\4-----4--8---8\4--|

[Jade] 
 
 E|-----------------------------------|
 B|-----------------------------------|
 G|-----------------------------------|
 D|-----------------------------------|
 A|-----3--------3--------3--------3--|
 E|--4--------4--------4--------4-----|

Ab (throughout verse if you dont want to play the riff. or combine them)
Hey baby
Tell me your name
I gotta fever for you
I just can't explain
But there's just one problem
I'm a bit old school
When it comes to lovin'
I ain't chasing you
Been waiting
I'm on a roll
You've got to let yourself go
[Perrie's Part] 
if it is difficult, play only the bass (4,6,7,4,6,8,5,6)
 
 E|-------------------------|-------------------------|
 B|-------------------------|----------------8-----9--|
 G|-----------------------6-|----8-----10-------------|
 D|-----6-----8-----9-------|-------------5-----6-----|
 A|--------------------4----|-6-----8-----------------|
 E|--4-----6-----7----------|-------------------------|

[Perrie] 
[Ab]Whoa
[Db] You know that I've been waiting for [Ab]you
[Db] Don't leave me standing all by [Ab]myself
[Db] Cause I ain't looking at no one[Ab] else
[Jesy] 
throught chorus Ab
 
 E|-----------------------------4--|
 B|-----------------------------4--|
 G|-----------------------------5--|
 D|-----------------------------6--|
 A|-----------------------------6--|
 E|--4-----4-----6--7--6--4-----4--|

Ab (throughout chorus)
Hey
Get your back off the wall
Don't you get comfortable
Looking so hot
I think that I might fall
Feeling like it's my birthday
Like Christmas day came early
Just what I want
So when we move
You move
[All] 
throught chorus Ab
 
 E|-----------------------------4--|
 B|-----------------------------4--|
 G|-----------------------------5--|
 D|-----------------------------6--|
 A|-----------------------------6--|
 E|--4-----4-----6--7--6--4-----4--|

Ab (throughout)
Hey
Get your back off the wall
Don't you get comfortable
Looking so hot
I think that I might fall
Feeling like it's my birthday
Like Christmas day came early
Just what I want
So when we move
You move
[Leigb-Anne] 
 
 E|-----------------------------------|
 B|-----------------------------------|
 G|-----------------------------------|
 D|-----------------------------------|
 A|-----3--------3--------3--------3--|
 E|--4--------4--------4--------4-----|

Ab (throughout)
Oh silly
Why you afraid
Don't be a big baby
Quit playing games
And put your arms around me
You know what to do
And we can take it down low
[Perrie] 
[Perrie's Part] 
if it is difficult, play only the bass (4,6,7,4,6,8,5,6)
 
 E|-------------------------|-------------------------|
 B|-------------------------|----------------8-----9--|
 G|-----------------------6-|----8-----10-------------| x4
 D|-----6-----8-----9-------|-------------5-----6-----|
 A|--------------------4----|-6-----8-----------------|
 E|--4-----6-----7----------|-------------------------|

[Ab]Whoa
[Db] You know that I've been waiting for [Ab]you
[Db] Don't leave me standing all by [Ab]myself
[Db] Cause I ain't looking at no one[Ab] else
[Jesy] 
throught chorus Ab
 
 E|-----------------------------4--|
 B|-----------------------------4--|
 G|-----------------------------5--|
 D|-----------------------------6--|
 A|-----------------------------6--|
 E|--4-----4-----6--7--6--4-----4--|

[Ab]Hey
Get your back off the wall
Don't you get comfortable
Looking so hot
I think that I might fall
Feeling like it's my birthday
Like Christmas day came early
Just what I want
So when we move
You move
[All] 
throught chorus Ab
 
 E|-----------------------------4--|
 B|-----------------------------4--|
 G|-----------------------------5--|
 D|-----------------------------6--|
 A|-----------------------------6--|
 E|--4-----4-----6--7--6--4-----4--|

[Ab]Get your back off the wall
Don't you get comfortable
Looking so hot
I think that I might fall
Feeling like it's my birthday
Like Christmas day came early
Just what I want
So when we move
You move
[Leigb-Anne] 
repeat through out Ab
 
 E|-----------------------------4--|
 B|-----------------------------4--|
 G|-----------------------------5--| x2
 D|-----------------------------6--|
 A|-----------4--6--4-----------6--|
 E|--4--6--7-----------7--6--4--4--|

[Ab]I know that you wanna
But you can't cause you gotta
Stay [Db]cool in the corner
When the truth is that you wanna [Ab]move
So move
I know that you wanna
But you can't cause you gotta
Stay [Db]cool in the corner
When the truth is that you wanna [Ab]move
So move
[Perrie] 
repeat through out
 
 E|-----------------------4--|
 B|-----------------------6--|
 G|-----------------------6--|
 D|-----------------------6--|
 A|-----------4-----------4--|
 E|--4--6--7-----7--6--4--4--|

[Ab]Move it baby, whoa
[Db] You know that I've been waiting for[Ab] you
[Db] Don't leave me standing all by my[Ab]self
[Db] Cause I ain't looking at no one [Ab]else
Looking at no one else
Looking at no one else
[All] 
repeat through out
 
 E|-----------------------4--|
 B|-----------------------6--|
 G|-----------------------6--|
 D|-----------------------6--|
 A|-----------4-----------4--|
 E|--4--6--7-----7--6--4--4--|

[Ab]Hey! Hey!
I'm ready, hey
So come and get me
[Db]Don't be scared
Show me what you do
Don't you know a girl
Like a boy who move
[Ab]Hey! Hey!
I'm ready, hey
So come and get me
[Db]Don't be scared
Show me what you do
Don't you know a girl
Like a boy who move
[Jesy] 
throught chorus Ab
 
 E|-----------------------------4--|
 B|-----------------------------4--|
 G|-----------------------------5--|
 D|-----------------------------6--|
 A|-----------------------------6--|
 E|--4-----4-----6--7--6--4-----4--|

[Ab] Get your back off the wall
Don't you get comfortable
Looking so hot
I think that I might fall
Feeling like it's my birthday
Like Christmas day came early
Just what I want
So when we move
You move
[All] 
[Ab]I'm ready, hey
Boy come and get me
[Db]Don't be scared
Show me what you do
Don't you know a girl
Like a boy who move [Ab]

Important: The song above is NOT stored on the Chordie server. The original song is hosted at www.azchords.com. Chordie works as a search engine and provides on-the-fly formatting. Chordie does not index songs against artists'/composers' will. To remove this song please click here.

Text color:
Chord color:
Chord grids: 
Font size:    
Page size: 

Ab Db
Rate #1 of 4 versions

Jango Player

Login - add to songbook

SHARE PAGE  



You need to log in to post comments