Guitar Tabs, Chords and Lyrics
Server problems seems to be fixed. Chordie has been experiencing problems with songs disappearing. These issues now seems to be fixed, but still verifying the fix. If you find anything strange, please email admin@chordie.com.


Secret Love Song  Little Mix

[Intro] 
 
 E|---------------------------------------------------|
 B|-----0--0h2--2--2--2--2-----0--0h2--0--------------|
 G|--2----------------------2-------------2--1--1--2--|
 D|---------------------------------------------------|
 A|--------0-------------0----------------------------|
 E|---------------------------------------------2-----|

When you h[A]old me in the street and you kiss me on the d[F#m]ance floor
 
 E|------------------------12----------|
 B|--10--10/12--10--9--10------10--10--|
 G|------------------------------------|
 D|------------------------0-----------|
 A|------------------------------------|
 E|------------------------------------|

I wish that it could b[D]e like that
 
 E|--------------12--------------10--9--7--5--5h7---|
 B|----------10------10--10--10---------------------|
 G|--11--13-----------------------------------------|
 D|--------------0----------------------------------|
 A|----------------------------------0--------------|
 E|-------------------------------------------0-----|

Why can't it [D]be like that, cause I'm yo[A]urs[E]
[Verse] 
 
 E|--------------------|
 B|-----2--2--2--2--2--|
 G|--2--2--2--2--2--2--|
 D|--------------------|
 A|-----0-----------0--|
 E|--------------------|

We k[A]eep behind closed doors
 
 E|-------------0--0--2--0-----------------|
 B|-----0--0h2--------------2--2--2--2--2--|
 G|--2----------------------2--2--2--2--2--|
 D|----------------------------------------|
 A|----------------------------------------|
 E|-------------------------2--2--------2--|

Every time I see you, I [F#m]die a little more
 
 E|-------------0--2--------------------|
 B|-----0--0h2--------2--3--3--3--3--3--|
 G|--2-------------------2--2--2--2--2--|
 D|----------------------0--0--------0--|
 A|-------------------------------------|
 E|-------------------------------------|

Stolen moments that we st[D]eal as the curtain falls
 
 E|-----------------------------------------|
 B|--3--3--2-----0--2--2--2--0-----------0--|
 G|-----------2-----2--2--2--1--------1-----|
 D|--------------------------------2--------|
 A|-----------------0-----------2-----------|
 E|--------------------------0--------------|

It'll never be eno[A]ugh[E]
 
 E|-----------------------|
 B|-----0--2--2--2--2--2--|
 G|--2-----2--2--2--2--2--|
 D|-----------------------|
 A|--------0--0--------0--|
 E|-----------------------|

It's obvi[A]ous you're meant for me
 
 E|-------------0--0--2--0-----------------|
 B|-----0--0h2--------------2--2--2--2--2--|
 G|--2----------------------2--2--2--2--2--|
 D|----------------------------------------|
 A|----------------------------------------|
 E|-------------------------2--2--------2--|

Every piece of you it j[F#m]ust fits perfectly
 
 E|-------------0--2--------------0-----|
 B|-----0--0h2--------2--3--3--3--3--3--|
 G|--2-------------------2--2--2-----2--|
 D|----------------------0--0--------0--|
 A|-------------------------------------|
 E|-------------------------------------|

Every second every tho[D]ught I'm in so deep
 
 E|-----------------------------------------|
 B|--3--3--2-----0--2--2--2--0-----------0--|
 G|-----------2-----2--2--2--1--------1-----|
 D|--------------------------------2--------|
 A|-----------------0--0--------2-----------|
 E|--------------------------0--------------|

But I'll never s[A]how it on my f[E]ace
[Refrain] 
 
 E|--------------0--0--2--0----------------0--|
 B|--0--2--3--3--2--2--2--2--2--2/3--3--3--0--|
 G|--------2--2----------------------2--2--1--|
 D|----------------------------------------2--|
 A|--------2--2--0-------------------2--2--2--|
 E|----------------------------------------0--|

But we k[Bm]now this,[A] we got a love that is h[Bm]opeless[E]
[Cborus] 
 
 E|-------5--7--9--9--9--9--9--|
 B|--3/5--------5--5--5--5--5--|
 G|----------------------------|
 D|----------------------------|
 A|-------------0--0--------0--|
 E|----------------------------|

Why can't y[A]ou hold me in the street?
 
 E|--5--7--7/9--7--5--4--4--5-----|
 B|----------------------2--2-----|
 G|-------------------------------|
 D|-------------------------------|
 A|-------------------------------|
 E|----------------------2--2--2--|

Why can't I kiss you on the d[F#m]ance floor?
 
 E|--5--5/7--5--4--5--12----------|
 B|-----------------------10--10--|
 G|---------------------------11--|
 D|-------------------0-----------|
 A|-------------------------------|
 E|-------------------------------|

I wish that I could [D]be like that
 
 E|--------------12--------------10--9---7--5--7--|
 B|----------10------10--10--10------10--------9--|
 G|--11--13--------------11-----------------------|
 D|--------------0--------------------------------|
 A|----------------------------------0------------|
 E|--------------------------------------------0--|

Why can't we [D]be like that? Cause I'm yo[A]urs[E]
[Verse] 
 
 E|--------------------------|
 B|--------0--2--2--2--2--2--|
 G|--2--2-----2--2--2--2--2--|
 D|--------------------------|
 A|-----------0--0--------0--|
 E|--------------------------|

When you're with [A]him, do you call his name,
 
 E|-------------0--0--2--0-----------------|
 B|-----0--0h2--------------2--2--2--2--2--|
 G|--2----------------------2--2--2--2--2--|
 D|----------------------------------------|
 A|----------------------------------------|
 E|-------------------------2--------------|

Like you do when you're with[F#m] me, Does it feel the same?
 
 E|-------------0--2--------------0-----|
 B|-----0--0h2--------2--3--3--3--3--3--|
 G|--2-------------------2--2--2-----2--|
 D|----------------------0-----------0--|
 A|-------------------------------------|
 E|-------------------------------------|

Would you leave if I was [D]ready to settle down?
 
 E|-----------------------0--2/4--2--0--0--|
 B|--3--3--2-----0--2--2----------------0--|
 G|-----------2-----2--2----------------1--|
 D|-------------------------------------2--|
 A|-----------------0-------------------2--|
 E|-------------------------------------0--|

Or would you play it s[A]afe and st[E]ay
[Refrain] 
 
 E|--------------0--0--2--0--------------0--|
 B|--0--2--3--3--2--2--2--2--2--2--3--3--0--|
 G|--------2--2--------------------2--2--1--|
 D|--------------------------------------2--|
 A|--------2--2--0-----------------2-----2--|
 E|--------------------------------------0--|

Girl you kn[Bm]ow this, [A]we got a love that is [Bm]hopeless[E]
[Cborus] 
 
 E|-------5--7--9--9--9--9--9--|
 B|--3/5--------5--5--5--5--5--|
 G|----------------------------|
 D|----------------------------|
 A|-------------0--0--------0--|
 E|----------------------------|

Why can't y[A]ou hold me in the street?
 
 E|--5--7--7/9--7--5--4--4--5-----|
 B|----------------------2--2-----|
 G|-------------------------------|
 D|-------------------------------|
 A|-------------------------------|
 E|----------------------2--2--2--|

Why can't I kiss you on the [F#m]dance floor?
 
 E|--5--5/7--5--4--5--12----------|
 B|-----------------------10--10--|
 G|---------------------------11--|
 D|-------------------0-------0---|
 A|-------------------------------|
 E|-------------------------------|

I wish that I could [D]be like that
 
 E|--------------12--------------10--9---7--5--7--|
 B|----------10------10--10--10------10--------9--|
 G|--11--13--------------11-----------------------|
 D|--------------0--------------------------------|
 A|----------------------------------0------------|
 E|--------------------------------------------0--|

Why can't we [D]be like that? Cause I'm y[A]ours[E]
[Bridge] 
 
 E|--0--0--5--4--2--2--2--2--2--2--0--0-----|
 B|--------------------------------------2--|
 G|--------------------------------------2--|
 D|-----------------------------------------|
 A|--------------------------------------0--|
 E|--------------2--------------0-----------|

And nobody k[F#m]nows, I'm in love with some[E]one's ba[A]by
 
 E|--5--5--5--7------------|
 B|--------------10--9--7--|
 G|------------------------|
 D|------------------------|
 A|------------------------|
 E|-----------7------------|

I don't wanna [Bm]hide us away
 
 E|-----5--5--5--5--2--2--0-----|
 B|-----------------------------|
 G|-----------------------------|
 D|-----------------------------|
 A|--------------------------0--|
 E|--2-----------0--------------|

[F#m] Tell the world about the lo[E]ve we mak[A]ing
 
 E|--5--5--7------------5--------5--7--4--------4--7--|
 B|-----------10--9--7--7-----7-----7--5-----5--5--9--|
 G|------------------------7--------7-----4-----4--9--|
 D|---------------------0-----------------------------|
 A|---------------------------------------------------|
 E|--------7---------------------------0--------------|

I'm living for that [Bm]day, Somed[D]ay [E]
[Verse] 
 
 E|-----------------------|
 B|-----0--2--2--2--2--2--|
 G|--2--------------------|
 D|-----------------------|
 A|--------0-----------0--|
 E|-----------------------|

Why can't I h[A]old you in the street?
 
 E|-------------------------------|
 B|-----0--0h2--0-----------2-----|
 G|--2-------------2--1--1-----2--|
 D|-------------------------------|
 A|-------------------------------|
 E|----------------------2--------|

Why can't I kiss you on the [F#m]dance floor?
 
 E|-----------------0--------|
 B|-----2--------------------|
 G|--2-----2--1--2-----2--2--|
 D|-----------------0--------|
 A|--------------------------|
 E|--------------------------|

I wish that we could [D]be like that
 
 E|-----------0-----------0--0--2--7--|
 B|--------------------------0--0--9--|
 G|-----1--2-----2--2--2-----1--1--9--|
 D|--4--------0--------------2--2-----|
 A|--------------------------2--2-----|
 E|--------------------------0--0-----|

Why can't we be l[D]ike that? Cause I'm y[E]ours, [Eadd9]I'm yo[E]urs
[Cborus] 
 
 E|--7/9--7--5--9--9--9--9--9--|
 B|-------------5--5--5--5--5--|
 G|----------------------------|
 D|----------------------------|
 A|-------------0--0--------0--|
 E|----------------------------|

Why can't I h[A]old you in the street?
 
 E|--5--7--7/9--7--5--4--4--5-----|
 B|----------------------2--2-----|
 G|-------------------------------|
 D|-------------------------------|
 A|-------------------------------|
 E|----------------------2--2--2--|

Why can't I kiss you on the d[F#m]ance floor?
 
 E|--5--5/7--5--4--5--12----------|
 B|-----------------------10--10--|
 G|---------------------------11--|
 D|-------------------0-------0---|
 A|-------------------------------|
 E|-------------------------------|

I wish that we could [D]be like that
 
 E|--------------12--------------10--9---7--5--7--|
 B|----------10------10--10--10------10--------9--|
 G|--11--13--------------11-----------------------|
 D|--------------0-------0------------------------|
 A|----------------------------------0------------|
 E|--------------------------------------------0--|

Why can't we [D]be like that? Cause I'm yo[A]urs[E]
 
 E|--5--5--7--9--9--9--9--9--|
 B|-----------5--5--5--5--5--|
 G|--------------------------|
 D|--------------------------|
 A|-----------0--0--------0--|
 E|--------------------------|

Why can't I s[A]ay that I'm in love?
 
 E|--5--7--7/9--7--5--4--4--5-----|
 B|----------------------2--2-----|
 G|-------------------------------|
 D|-------------------------------|
 A|-------------------------------|
 E|----------------------2--2--2--|

I wanna shout it from the r[F#m]ooftops
 
 E|--5--5/7--5--4--5--12----------|
 B|-----------------------10--10--|
 G|---------------------------11--|
 D|-------------------0-------0---|
 A|-------------------------------|
 E|-------------------------------|

I wish that it could [D]be like that
 
 E|--------------12--------------10--10/12--10--9--7--|
 B|----------10------10--10--10--------------------9--|
 G|--11--13--------------11------------------------9--|
 D|--------------0------------------------------------|
 A|----------------------------------0----------------|
 E|------------------------------------------------0--|

Why can't we [D]be like that? Cause I'm y[A]ours[E]
[Outro] 
 
 E|--------------12----------|
 B|----------10------10--10--|
 G|--11--13------------------|
 D|--------------0-----------|
 A|--------------------------|
 E|--------------------------|

Why cant we [D]be like that?
 
 E|--------------12----------0--|
 B|----------10------10--12--2--|
 G|--11--13------------------2--|
 D|--------------0-----------2--|
 A|--------------------------0--|
 E|----------------------0------|

Wish we could [D]be like that [A]

Important: The song above is NOT stored on the Chordie server. The original song is hosted at www.azchords.com. Chordie works as a search engine and provides on-the-fly formatting. Chordie does not index songs against artists'/composers' will. To remove this song please click here.

Text color:
Chord color:
Chord grids: 
Font size:    
Page size: 

A Bm D E Eadd9 F#m
Rate #1 of 2 versions

Login - add to songbook

SHARE PAGE  




You need to log in to post comments