Guitar Tabs, Chords and Lyrics
Server problems seems to be fixed. Chordie has been experiencing problems with songs disappearing. These issues now seems to be fixed, but still verifying the fix. If you find anything strange, please email admin@chordie.com.


Shout Out to My Ex  Little Mix

[Verse] 
[D] [Em] [G] [D]  
 
 e|---------------------------------------------------------------------------|
 B|-----2---------2---------0-----------0-----------3--------3-------2-------2|
 G|-----3---------3---------0-----------0-----------0--------0-------3-------3|
 D|-0-0------0-0------------2-----------2-----------0--------0---0-0-----0-0--|
 A|-------x---------x-----------x----------x----------x--------x--------x-----|
 E|-------x---------x---0-0-----x---0-0----x----3-3---x--3-3---x--------x-----|

then just repeat throughout verse
Lyrics:
This is a shout out to my ex
Heard he in love with some other chick
Yeah yeah, that hurt me, I'll admit
Forget that boy, I'm over it
I hope she gettin' better sex
Hope she ain't fakin' it like I did, babe
Took four long years to call it quits
Forget that boy, I'm over it
[Pre-Cborus] 
[D] [Em] [G] [Bm] [A]  
 
 e|--------------------------------------------------------2---------0--------|
 B|-----2-------3---------0----------0-------3--------3----3---------2--------|
 G|-----3-------3---------0----------0-------0--------0----4---------2--------|
 D|-0-0-----0-0-----------2----------2-------0--------0----4---------2--------|
 A|-------x-------x----------x--------x--------x--------x--2---------0--------|
 E|-------x-------x----0-0---x--0-0---x--3-3---x--3-3---x--2---------x--------|

PM PM
Guess I should say thank you
For the "hate you's" and the tattoos
Oh baby, I'm cool by the way
Ain't sure I loved you anyway
Go ahead, babe, I'mma live my life, my life, yeah
[Cborus] 
[D]Shout out to my ex, you're really quite the [A]man
[G]You made my heart break and that made me who I am
[D]Here's to my ex, hey, look at me [A]now
Well, I, [G]I'm all the way up
I swear you'll never bring me down
[D]Shout out to my ex, you're really quite the [A]man
[G]You made my heart break and that made me who I am
[Bm]Here's to my ex, [A]hey, look at me now
Well, I, [G]I'm all the way up
I swear you'll never, you'll [A]never bring me down[D]
[Verse 2] 
[D] [Em] [G] [D]  
 
 e|---------------------------------------------------------------------------|
 B|-----2---------2---------0-----------0-----------3--------3-------2-------2|
 G|-----3---------3---------0-----------0-----------0--------0-------3-------3|
 D|-0-0------0-0------------2-----------2-----------0--------0---0-0-----0-0--|
 A|-------x---------x-----------x----------x----------x--------x--------x-----|
 E|-------x---------x---0-0-----x---0-0----x----3-3---x--3-3---x--------x-----|

Oh, I deleted all your pics
Then blocked your number from my phone
Yeah yeah, you took all you could get
But you ain't getting this love no more
'Cause now I'm living so legit (so legit)
Even though you broke my heart in two, baby
But I snapped right back, I'm so brand new, baby (I'm so brand new)
Boy, read my lips, I'm over you, over you
[Pre-Cborus] 
[D] [Em] [G] [Bm] [A]  
 
 e|--------------------------------------------------------2---------0--------|
 B|-----2-------3---------0----------0-------3--------3----3---------2--------|
 G|-----3-------3---------0----------0-------0--------0----4---------2--------|
 D|-0-0-----0-0-----------2----------2-------0--------0----4---------2--------|
 A|-------x-------x----------x--------x--------x--------x--2---------0--------|
 E|-------x-------x----0-0---x--0-0---x--3-3---x--3-3---x--2---------x--------|

PM PM
Guess I should say thank you
For the "hate you's" and the tattoos
Oh baby, I'm cool by the way
Ain't sure I loved you anyway
Go ahead, babe, I'mma live my life, my life, yeah
[Cborus] 
[D]Shout out to my ex, you're really quite the [A]man
[G]You made my heart break and that made me who I am
[D]Here's to my ex, hey, look at me [A]now
Well, I, [G]I'm all the way up
I swear you'll never bring me down
[D]Shout out to my ex, you're really quite the [A]man
[G]You made my heart break and that made me who I am
[Bm]Here's to my ex, [A]hey, look at me now
Well, I, [G]I'm all the way up
I swear you'll never, you'll [A]never bring me down[D]
[Post-Cborus] 
[D]Ooh, ooh, ooh, ooh, ooh, ooh
Ooh, ooh, [A]ooh, ooh, ooh, [G]ooh, oooh, ooh
You'll never bring me d[Bm]own
Ooh, ooh, ooh, ooh, ooh, ooh
[A]Ooh, ooh, ooh, ooh, ooh, [G]ooh, oooh, ooh (Yeah)
[Bridge] *single strum
D* A*
Shout out to my ex, you're really quite the man
G*
You made my heart break and that made me who I am
Bm* A*
Here's to my ex, hey, look at me now
G*
Well, I, I'm all the way up
A*
I swear you'll never, you'll never bring me dooooown
[Cborus] 
[D]Shout out to my ex, you're really quite the [A]man (You're quite the man)
[G]You made my heart break and that made me who I am
[D]Here's to my ex, hey, look at me [A]now
Well, I, [G]I'm all the way up
I swear you'll never bring me down (You'll never bring me down)
[D]Shout out to my ex, you're really quite the [A]man
[G]You made my heart break and that made me who I am
[Bm]Here's to my ex, [A]hey, look at me now (Won't you just look at me now)
Well, I, [G]I'm all the way up
I swear you'll never, you'll [A]never bring me down[D]
[Outro] - D , A G , Bm , A G
Oh, oh, oh, oh, oh, oh, oh
Oh, oh, oh, oh, oh
Oh, oh, oh, oh, oh, oh, oh
Oh, oh, oh, oh, oh
Oh, oh, oh, oh, oh, oh, oh
Oh, oh, oh, oh, oh
 
 Oh-oh-oh, oh-oh-oh, oh-oh-oh, oh, oh, oh

Never bring me d[D]own...

Important: The song above is NOT stored on the Chordie server. The original song is hosted at www.azchords.com. Chordie works as a search engine and provides on-the-fly formatting. Chordie does not index songs against artists'/composers' will. To remove this song please click here.

Text color:
Chord color:
Chord grids: 
Font size:    
Page size: 

A Bm D Em G
Rate #1 of 2 versions

Login - add to songbook

SHARE PAGE  




You need to log in to post comments