Guitar Tabs, Chords and Lyrics
Server problems seems to be fixed. Chordie has been experiencing problems with songs disappearing. These issues now seems to be fixed, but still verifying the fix. If you find anything strange, please email admin@chordie.com.


You Gotta Not  Little Mix

(the rhythm is like 3 crotchets then 2 quavers as the song is in 4/4)
[Intro] 
[C#]  
 
 e|---------------------------------------------------------------------------|
 B|---2------2------2------2--2-----------------------------------------------|
 G|---------------------------------------------------------------------------|
 D|---3------3------3------3--3-----------------------------------------------|
 A|---4------4------4------4--4-----------------------------------------------|
 E|---------------------------------------------------------------------------|

[Verse] 
[C#]  
 
 e|---------------------------------------------------------------------------|
 B|---2------2------2------2--2-----------------------------------------------|
 G|---------------------------------------------------------------------------|
 D|---3------3------3------3--3-----------------------------------------------|
 A|---4------4------4------4--4-----------------------------------------------|
 E|---------------------------------------------------------------------------|

Call your mama "mommy"
(You gotta not!)
Askin' her for money
(You gotta not!)
Never keep your house clean
(You gotta not!)
Wearin' dirty laundry
(You gotta not!)
[F#] [C#]  
 
 e|------------------------------------------------|-------------------------------|
 B|------------------------------------------------|-----------2----2----2----2-2--|
 G|------------------------3---3---3----3--3-------|-------------------------------|
 D|------------------------4---4---4----4--4-------|-----------3----3----3----3-3--|
 A|------------------------4---4---4----4--4-------|-----------4----4----4----4-4--|
 E|------------------------------------------------|-------------------------------|

Is that what you call flirtin'? (You gotta not!) You ain't even workin', boy get a job
[Ab] [C#]  
 
 e|---------------------------------------|-----------------------------------|
 B|---------------------------------------|--------2----2------2--------------|
 G|---------5--5--5---5--5----------------|-----------------------------------|
 D|---------6--6--6---6--6----------------|--------3----3------3--------------|
 A|---------6--6--6---6--6----------------|--------4----4------4--------------|
 E|---------------------------------------|-----------------------------------|

And baby when you wanna start growin' up We can boom, boom, boom, maybe fall in love
[C#]  
 
 e|---------------------------------------------------------------------------|
 B|---2------2------2------2--2-----------------------------------------------|
 G|---------------------------------------------------------------------------|
 D|---3------3------3------3--3-----------------------------------------------|
 A|---4------4------4------4--4-----------------------------------------------|
 E|---------------------------------------------------------------------------|

Oh, you don't like kids?
(You gotta not!)
(You gotta not!)
Is you afraid of Blue's Clues?
(You gotta not!)
Do you still use a Bluetooth?
(You gotta not!)
[F#] [C#]  
 
 e|-------------------------------------------------|------------------------------|
 B|-------------------------------------------------|----------2----2----2----2-2--|
 G|------------------------3---3---3----3--3--------|------------------------------|
 D|------------------------4---4---4----4--4--------|----------3----3----3----3-3--|
 A|------------------------4---4---4----4--4--------|----------4----4----4----4-4--|
 E|-------------------------------------------------|------------------------------|

And baby when you wanna start growin' up
[Ab] [C#]  
 
 e|---------------------------------------|-----------------------------------|
 B|---------------------------------------|--------2----2------2--------------|
 G|---------5--5--5---5--5----------------|-----------------------------------|
 D|---------6--6--6---6--6----------------|--------3----3------3--------------|
 A|---------6--6--6---6--6----------------|--------4----4------4--------------|
 E|---------------------------------------|-----------------------------------|

And baby when you wanna start growin' up We can boom, boom, boom, maybe fall in love (Let's go!)
[Cborus] 
[C#]I need a [A#m]man
A man who can [C#]act like a [A#m]man
So hear me [C#]now, I don't get paid to babysit no one
[A#m]I'm out here lookin' for the one to love
Singin', [C#]I need a [A#m]man, so hear me now[C#]
[Verse 2] 
[D]  
 
 e|---------------------------------------------------------------------------|
 B|---3--3-3-3-3--------------------------------------------------------------|
 G|---2--2-2-2-2--------------------------------------------------------------|
 D|---0--0-0-0-0--------------------------------------------------------------|
 A|---------------------------------------------------------------------------|
 E|---------------------------------------------------------------------------|

Ah, you don't bump to The Weeknd?
(You gotta not!)
You argue with my best friend?
(You gotta not!)
Yeah all the hottie-totties
(You gotta not!)
If that's the way you party
(You gotta not!)
[G] [D]  
 
 e|-----------------------------------------|---------------------------------|
 B|----------------3---3---3---3--3---------|----------------3--3--3--3--3----|
 G|----------------0---0---0---0--0---------|----------------2--2--2--2--2----|
 D|----------------0---0---0---0--0---------|----------------0--0--0--0--0----|
 A|-----------------------------------------|---------------------------------|
 E|----------------3---3---3---3--3---------|---------------------------------|

And everybody warned me (You gotta not!) But you're kinda hot, so I thought, why not?
[A] [D]  
 
 e|---------------------------------------|-----------------------------------|
 B|----------2--2--2--2--2----------------|---------3--3--3--3---3------------|
 G|----------2--2--2--2--2----------------|---------2--2--2--2---2------------|
 D|----------2--2--2--2--2----------------|---------0--0--0--0---0------------|
 A|---------------------------------------|-----------------------------------|
 E|---------------------------------------|-----------------------------------|

And baby when you wanna start growin' up We can boom, boom, boom, maybe, fall in love
{Chorus]
[D]I need a [Bm]man
A man who can [D]act like a [Bm]man
So hear me [D]now, I don't get paid to babysit no one
[Bm]I'm out here lookin' for the one to love
Singin', [D]I need a [Bm]man, so hear me now
[D]Nah, nah, nah, nah, nah
[Bm]Nah, nah, nah, nah, nah, nah, nah, nah
[D]Nah, nah, nah, nah, nah
[Bm]Nah, nah, nah, nah, nah, nah, nah, nah
[Bridge] 
[D]All my ladies, if you need a man, sing!
[D]Call your momma "mommy" (You gotta not!)
[D]Askin' her for money (You gotta not!)
And baby [A]when you wanna start growin' up
We can [D]boom, boom, boom, baby, fall in love
[Cborus] 
[D]I need a [Bm]man
A man who can [D]act like a [Bm]man
So hear me [D]now, I don't get paid to babysit no one
[Bm]I'm out here lookin' for the one to love
Singin', [D]I need a [Bm]man, so hear me now
[D]Nah, nah, nah, nah, nah
[Bm]Nah, nah, nah, nah, nah, nah, nah, nah
(So hear me now)
[D]Nah, nah, nah, nah, nah
[Bm]Nah, nah, nah, nah, nah, nah, nah, nah
(So hear me now)
[Outro] 
[D]I need, I need a man
[Bm]I need, I need a man (I need a man)
[D]I need, I need a man
[Bm]I need, I need a ma[D]n (I need a man)
(I need a man)

Important: The song above is NOT stored on the Chordie server. The original song is hosted at www.azchords.com. Chordie works as a search engine and provides on-the-fly formatting. Chordie does not index songs against artists'/composers' will. To remove this song please click here.

Text color:
Chord color:
Chord grids: 
Font size:    
Page size: 

A A#m Ab Bm C# D F# G
Rate #1 of 2 versions

Jango Player

Login - add to songbook

SHARE PAGE  



You need to log in to post comments