Guitar Tabs, Chords and Lyrics
Server problems seems to be fixed. Chordie has been experiencing problems with songs disappearing. These issues now seems to be fixed, but still verifying the fix. If you find anything strange, please email admin@chordie.com.


My Way  Los Lonely Boys

[INTRO] 
 
 e|-------------------------------|------------------------------|
 B|-------------------------------|------------------------------|
 G|----9-9----9-9----9----9-11----|----8-8----8-8----8----8-9----| Repeat 3x
 D|-11----11------11---11---------|-10-----10-----10---10--------|
 A|-------------------------------|------------------------------|
 E|-------------------------------|------------------------------|
 e|-------------------------------|------------------------------|
 B|-------------------------------|------------------------------|
 G|----9-9----9----9----10---9----|----8-8----8-----8-----9------| Repeat 2x
 D|-11----11----11---11--9---9----|-10-----10---10---10---9--9---|
 A|-------------------------------|------------------------------|
 E|-------------------------------|------------------------------|

[VERSE 1] 
[Dbm]I don't need no for[Ab7]tune
[Dbm]I don't need no [Ab7]fame
[Dbm]That's all just an il[Ab7]lusion
[Dbm]To me it don't mean a [Ab7]thing
[SEGUE] 
 
 e|-------------------------------|------------------------------|
 B|-------------------------------|------------------------------|
 G|----9-9----9----9----10---9----|----8-8----8-----8-----9------| Repeat 2x
 D|-11----11----11---11--9---9----|-10-----10---10---10---9--9---|
 A|-------------------------------|------------------------------|
 E|-------------------------------|------------------------------|

[VERSE 2] 
[Dbm]You can try and deceive [Ab7]me
[Dbm]But I see right through your [Ab7]skin
[Dbm]And what you're trying to tell [Ab7]me
[Dbm]Is something I don't beleive [Ab7]in
[CBORUS] 
[Dbm]Don't [E]tell me [Gb]how to [Ab7]live my life
[A7]Don't tell me how to [Ab7]pray
[Dbm]Don't [E]tell me [Gb]how to [Ab7]sing my song
[A7]Don't tell me what to[Ab7] say
[Dbm]Cuz I [E]believe [Gb]that mi[Ab7]racles
[A7]happen every day[Ab7]
[Dbm]I don'[E]t care w[Gb]hat you[Ab7] say,
[A7]I'm gonna do it my wa[Ab7]y
[Dbm] [E] [Gb] [Ab7]  
[A7]I'm gonna do it my wa[Ab7]y
[VERSE 3] 
[Dbm]Say you have all the [Ab7]answers
[Dbm]I should do it your [Ab7]way
[Dbm]How many times do I have to [Ab7]tell you
[Dbm]I ain't a puppet on a [Ab7]string
[CBORUS] 
[Dbm]Don't [E]tell me [Gb]how to [Ab7]live my life
[A7]Don't tell me how to [Ab7]pray
[Dbm]Don't [E]tell me [Gb]how to [Ab7]sing my song
[A7]Don't tell me what to[Ab7] say
[Dbm]Cuz I [E]believe [Gb]that mi[Ab7]racles
[A7]happen every day[Ab7]
[Dbm]I don'[E]t care w[Gb]hat you[Ab7] say,
[A7]I'm gonna do it my wa[Ab7]y
[Dbm] [E] [Gb] [Ab7]  
[A7]I'm gonna do it my wa[Ab7]y
[SOLO] 
Use progression from verses
[SEGUE] 
 
 e|-------------------------------|------------------------------|
 B|-------------------------------|------------------------------|
 G|----9-9----9----9----10---9----|----8-8----8-----8-----9------| Repeat 2x
 D|-11----11----11---11--9---9----|-10-----10---10---10---9--9---|
 A|-------------------------------|------------------------------|
 E|-------------------------------|------------------------------|

[CBORUS] 
[Dbm]Don't tell me how to live my life
[A7]Don't tell me how to pray
[Dbm]Don't tell me how to sing my song
[A7]Don't tell me what to say
[Dbm]Cuz I [E]believe [Gb]that mi[Ab7]racles
[A7]happen every day[Ab7]
[Dbm]I don'[E]t care w[Gb]hat you[Ab7] say,
[A7]I'm gonna do it my wa[Ab7]y
[Dbm] [E] [Gb] [Ab7]  
[A7]I'm gonna do it my wa[Ab7]y
[Dbm] [E] [Gb] [Ab7]  
[A7]I'm gonna do it God's [Ab7]way

Important: The song above is NOT stored on the Chordie server. The original song is hosted at www.azchords.com. Chordie works as a search engine and provides on-the-fly formatting. Chordie does not index songs against artists'/composers' will. To remove this song please click here.

Text color:
Chord color:
Chord grids: 
Font size:    
Page size: 

A7 Ab7 Dbm E Gb
Rate #1 of 2 versions

Jango Player

Login - add to songbook

SHARE PAGE  




You need to log in to post comments