Guitar Tabs, Chords and Lyrics
Update 25:10. 13:00. Site is back up running again. Songbooks are recovered. Woring on getting search back up..


Je vole  Louane

Accords :
 
 ---------

C :x32010
G7:320001
G : 320033
F : 133211 ou sans barré x3321x
Arpège refrain :
 
 ----------------

[C] [G7] [C]  
 
 e|-------------------0------0---------------1---------0------0--------|
 B|-------0--1--3-------1------1-----------0---0---------1------1------|
 G|*-0--2-----------------0------0-------0-------0---------2------2----|
 D|*-------------------------------------------------------------------|
 A|-------------------3------3-------------------------0------0--------|
 E|-----------------------------------3--------------------------------|

[G7] [F] [C] [G] [---1]  
 
 e|--------1---------------1---------------0---------|------------||
 B|------0---0------1----------0----1------------1---|------------||
 G|----0-------0------2------2--------0-------0------|-----------*||
 D|---------------------3---------------2------------|-----------*||
 A|---------------------------------3----------------|------------||
 E|-3---------------1--------------------------------|----3-------||

La 2eme répétition finir comme ça :
[---2]  
[G] [C]  
 
 e|--------------------------0---------|
 B|--------3---------------1-----------|
 G|------0---0-----------0-------------|
 D|----0-------0-------2---------------|
 A|------------------3-----------------|
 E|-3--------------x-------------------|

Refrain :
 
 ---------

[G7]Mes chers parents, je p[C]ars,
[G7]je vous aime, mais [C]je pars,
[G7]vous n'aurez plus d[F]'enfants, ce s[C]oir,[G]
Je n'enfuis pas, je v[C]ole,
[G7]Comprenez bien, je [C]vole,
G7 F C G C(arpéger 1 coup)
Sans fumée, sans alcool, je vole,
Couplet 1 :
 
 -----------

Motif faire 1 fois par accord :
 
 e|------------------------|
 B|--------x---------------|
 G|------x---x-------------|
 D|----x-------x-----------|
 A|------------------------|
 E|-x----------------------|

Elle m'observait h[G]ier,
soucieuse, troublée, ma m[C]re,
Comme si elle le senta[G]it,
En fait elle se douta[F]it, entenda[C]it...[G]
[C]J'ai dit que j'étais [G]bien,
tout fait l'air ser[C]ein,
elle a fait comme de r[G]ien,
et mon père dém[F]uni, [C]souri...
[G]Ne pas se retourne[C]r,
[G]s'éloigner un peu pl[C]us,
[F]Il y a Gard, une autre[F] gare,
Et en[C]fin, l'atlantique..[G7].
 
 e|--------3--1--0--1h3-----|
 B|-----0-------------------|
 G|---0---------------------|
 D|-------------------------|
 A|-------------------------|
 E|-3-----------------------| 

Refrain 2 :
 
 -----------

[G7]Mes chers parents, je p[C]ars,
[G7]je vous aime, mais [C]je pars,
[G7]vous n'aurez plus d[F]'enfants, ce s[C]oir,[G]
Je n'enfuis pas, je v[C]ole,
[G7]Comprenez bien, je [C]vole,
G7 F C G C(arpéger 1 coup)
Sans fumée, sans alcool, je vole,
Couplet 2 :
 
 -----------

[C]Je m'demande sur ma rou[G]te,
si mes parents se doute[C]nt,
que mes larmes ont coul[G]es,
mes promesses et l'env[F]ie, d'avan[C]cer...[G]
[C]Seulement croire en ma vi[G]e
Tout ce qui m'est promi[C]s
Pourquoi, où et comme[G]nt,
dans ce train qui s'élo[F]igne, chaque inst[G]ant...
[G]C'est bizarre cette ca[C]ge,
[G]qui me bloque la poitri[C]ne,
[F]je ne peut plus respi[F]rer,
ça m'e[C]mpêche de chanter...[G7]
Sur le dernier G7 on peut finir comme ça par ex :
 
 e|--------3--1--0--1h3-----|
 B|-----0-------------------|
 G|---0---------------------|
 D|-------------------------|
 A|-------------------------|
 E|-3-----------------------|

Refrain 3 :
 
 -----------

[G7]Mes chers parents, je p[C]ars,
[G7]je vous aime, mais [C]je pars,
[G7]vous n'aurez plus d[F]'enfants, ce s[C]oir,[G]
Je n'enfuis pas, je v[C]ole,
[G7]Comprenez bien, je [C]vole,
G7 F C G C(arpéger 1 coup)
Sans fumée, sans alcool, je vole

Important: The song above is NOT stored on the Chordie server. The original song is hosted at www.azchords.com. Chordie works as a search engine and provides on-the-fly formatting. Chordie does not index songs against artists'/composers' will. To remove this song please click here.

Text color:
Chord color:
Chord grids: 
Font size:    
Page size: 

C F G G7
Rate #1 of 1 versions

Jango Player

Login - add to songbook

SHARE PAGE  




You need to log in to post comments