Guitar Tabs, Chords and Lyrics
Update 25:10. 13:00. Site is back up running again. Songbooks are recovered. Woring on getting search back up..


No me doy por vencido  Luis Fonsi

 
 -------------------------------------------------------------------------------

Yo No Me Doy Por Vencido
Luis Fonsi
 
 -------------------------------------------------------------------------------

Tuning: Standard
Intro:
1. Eb
 
 e|------------------------|
 B|-----------8-8---8-8----|
 G|--8-8-8----8-8---8-8----|
 D|--8-8-8-----------------|
 A|--6-6-6--6--------------|
 E|---------------6--------|

2.
 
 e|----------------------------------------------------------6------------|
 B|--11-11-11-11-9--8-6---6-6-8-9--8-6-8---4-4-4-4-6-8-6---6--------------|
 G|--12-12-12-12-10-8-7---7-7-8-10-8-7-8---5-5-5-5-7-8-7------------------|
 D|-----------------------------------------------------------------------|
 A|-----------------------------------------------------------------------|
 E|-----------------------------------------------------------------------|

verse 1:
Me quedo cal[Eb]lado. Soy como un niño do[Bb]rmido, que puede despertarse con [B]apenas
solo un [Cm]ruido, cuando menos te lo es[Ab]peras, cuando menos lo ima[Fm]gino, se que
un dia no me a[Bb]guanto y voy y te [Eb]miro. Y te lo digo a los [Bb]gritos. y te ries y
me tomas por un [B]loco atre[Cm]vido. pues no sabes cuanto t[Ab]iempo en mis sueños has
vi[Fm]vido, ni sospechas cuando [Bb]te nombre.
chorus:
[Eb]Yo, yo no me doy por ven[Bb]cido, yo quiero un m[B]undo con[Cm]tigo. [Ab]Juro que vale la
Fm Bb Eb Ab,Eb,Fm
pena esperar, y esperar y esperar un suspiro, una señal del destino. No me
canso, no me [Bb]rindo, no me doy por ven[Eb]cido.
verse 2:
[Eb]Tengo una flor de bolsi[Bb]llo, marchita de buscar a una mu[B]jer que me q[Cm]uiera y
reciba su per[Ab]fume hasta traer la prima[Fm]vera, y me enseñe lo que[Bb] no aprendí de
la [Eb]vida Que brilla más cada[Bb] día, Porque estoy tan sólo a un paso de [B]ganarme
la ale[Cm]gría Porque el corazón l[Ab]evanta una tormenta enfu[Fm]recida Desde aquel
momento en q[Bb]ue te ví?
Bridge:
[Ab]Este sil[Eb]encio esconde [Fm]demasiadas pa[C#]labras,[Ab] No me d[Eb]etengo, pase l[Fm]o que pase
segui[Bb]

Important: The song above is NOT stored on the Chordie server. The original song is hosted at www.azchords.com. Chordie works as a search engine and provides on-the-fly formatting. Chordie does not index songs against artists'/composers' will. To remove this song please click here.

Text color:
Chord color:
Chord grids: 
Font size:    
Page size: 

Ab B Bb C# Cm Eb Fm
Rate #1 of 7 versions

Login - add to songbook

SHARE PAGE  



You need to log in to post comments