Guitar Tabs, Chords and Lyrics
Update 25:10. 13:00. Site is back up running again. Songbooks are recovered. Woring on getting search back up..


All My Friends Say  Luke Bryan

Luke Bryan: All My Friends Say
Guitar Solo:
[A] [D] [E]  
 
 E[--------------------------------------------------------------------------------]
 B[---------------------------------------------5-5---5--7--9--12--9--7-5--5-------]
 G[--2-4b-2-4b-2-4b-4b-2---4---------------4/6-------------------------------6-4-2-]
 D[----------------------------2??4/6-4-2-------------------------------------------]
 A[--------------------------------------------------------------------------------]
 E[--------------------------------------------------------------------------------]

[A] [D] [E]  
 
 E[---------------------------------------------------------------------------]
 B[---------------------------------------------------------------------------]
 G[--2-4b-2-4b-2-4b-4b-2---4--------------------------------------------------]
 D[------------------------------2??4/6-4-2--4/6-4-2--4/6-4-2---2-4/6-4-2------]
 A[------------------------------------------------------------------------2--]
 E[------------------------------------------------------------------------0--]


Important: The song above is NOT stored on the Chordie server. The original song is hosted at www.azchords.com. Chordie works as a search engine and provides on-the-fly formatting. Chordie does not index songs against artists'/composers' will. To remove this song please click here.

Text color:
Chord color:
Chord grids: 
Font size:    
Page size: 

A D E
Rate #1 of 6 versions

Login - add to songbook

SHARE PAGE  




You need to log in to post comments