Guitar Tabs, Chords and Lyrics
Server problems seems to be fixed. Chordie has been experiencing problems with songs disappearing. These issues now seems to be fixed, but still verifying the fix. If you find anything strange, please email admin@chordie.com.


Always and Forever  Luther Vandross

Tuning: standard
INTRO:
[Emaj7] [B/Db] [Amaj7] [Emaj7] [B/Db] [Cmaj7]  
 
 e|--4------2------4------2-----4-----2-----3------2-----------|
 B|--4------4------5------2-----4-----4-----5------2-----------|
 G|--4------4------6------2-----4-----4-----4------2-----------|
 D|--6------x------7------4-----6-----x-----5------4-----------|
 A|--7------4------0------2-----7-----4-----3------2-----------|
 E|--x--------------------------x-----------x------------------|

VERSE:
[Emaj7] [B/Db] [Dbm]  
 
 e|--4-----------------------2--------------------4------------------------|
 B|--4-----------------------4--------------------5------------------------|
 G|--4-----------------------4--------------------4------------------------|
 D|--6-----------------------x--------------------6------------------------|
 A|--7-----------------------4--------------------4------------------------|
 E|--x--------------------------------------------x------------------------|

always and forever each moment with you
and I know tomorrow will still be the same
[Amaj7] [Emaj7] [F#m7]  
 
 e|----4--------------------4----------2---------------------2--------------|
 B|----5--------------------4----------2---------------------2--------------|
 G|----6--------------------4----------2---------------------2--------------|
 D|----7--------------------6----------2---------------------4--------------|
 A|----0--------------------7----------4---------------------2--------------|
 E|-------------------------x----------2------------------------------------|

It's just like a dream to me that somehow came true
cuz we got a life of love that won't ever change and
CHORUS:
[Emaj7] [Amaj7] [G#m7] [F#m7]  
 
 e|-4-----------------------4----4-------2---------------------------------|
 B|-4-----------------------5----4-------2---------------------------------|
 G|-4-----------------------6----4-------2---------------------------------|
 D|-6-----------------------7----4-------2---------------------------------|
 A|-7-----------------------0----6-------4---------------------------------|
 E|-x----------------------------4-------2---------------------------------|

every day love me your own special way
[Emaj7] [G#m7]  
 
 e|----------------2---------------------4--------4--------------------------|
 B|----------------2---------------------4--------4--------------------------|
 G|----------------2---------------------4--------4--------------------------|
 D|----------------4---------------------6--------4--------------------------|
 A|----------------2---------------------7--------6--------------------------|
 E|--------------------------------------x--------4--------------------------|

melt all my heart away with your smile
[Amaj7] [G#m7] [F#m7] [G#m7]  
 
 e|--4-----4-------2-------4-----------------------------------------------|
 B|--5-----4-------2-------4-----------------------------------------------|
 G|--6-----4-------2-------4-----------------------------------------------|
 D|--7-----4-------2-------4-----------------------------------------------|
 A|--0-----6-------4-------6-----------------------------------------------|
 E|--------4-------2-------4-----------------------------------------------|

take time to tell me you really care
[Amaj7] [G#m7] [F#m7] [Emaj7] [G#m7]  
 
 e|-----4------4-----2-------2----4-----------4----------------------------|
 B|-----5------4-----2-------2----4-----------4----------------------------|
 G|-----6------4-----2-------2----4-----------4----------------------------|
 D|-----7------4-----2-------4----6-----------4----------------------------|
 A|-----0------6-----4-------2----7-----------6----------------------------|
 E|------------4-----2------------x-----------4----------------------------|

and we'll share tomorrow together oohhh baby
[Amaj7] [G#m7] [F#m7] [Emaj7]  
 
 e|------4----4------2--------------|----4---------------------------------|
 B|------5----4------2--------------|----4---------------------------------|
 G|------6----4------2--------------|----4---------------------------------|
 D|------7----4------2--------------|----6---------------------------------|
 A|------0----6------4--------------|----7---------------------------------|
 E|-----------4------2--------------|----x---------------------------------|

I'll always love you...... forever
[G/A]  
 
 e|-------3-------2----------------|
 B|-------3-------2----------------|
 G|-------4-------2----------------|
 D|-------5-------4----------------|
 A|-------0-------2----------------|
 E|--------------------------------|

ever ever ever....
verse, chorus, pattern after chorus repeated many times...
[G/A] [Emaj7]  
 
 e|-------3--------2----------------4------------------|
 B|-------3--------2----------------4------------------|
 G|-------4--------2----------------4------------------|
 D|-------5--------4----------------6------------------|
 A|-------0--------2----------------7------------------|
 E|----------------------------------x-----------------|

...and forever I love you.......

Important: The song above is NOT stored on the Chordie server. The original song is hosted at www.azchords.com. Chordie works as a search engine and provides on-the-fly formatting. Chordie does not index songs against artists'/composers' will. To remove this song please click here.

Text color:
Chord color:
Chord grids: 
Font size:    
Page size: 

Amaj7 Cmaj7 Dbm Emaj7 F#m7 G#m7
Rate #1 of 2 versions

Login - add to songbook

SHARE PAGE  




You need to log in to post comments